Misc Cartoons

Misc Cartoons - Gummie Bears Theme guitar tab

Gummi Bears Theme

On Lead

questions comments...more?

wdmp%1@hotmail.com (msn too)

Intro

e---------|----------------------------------------------------------------------|

b---------|----------------------------------------------------------------------|

g---------|----------------------------------------------------------------------|

d---------|---5-------8~---------------------------------------------------------|

a---8---8-|-----8-6-8------------------------------------------------------------|

e-6---6---|-6--------------------------------------------------------------------|

e------------|--------------|-------------|------------|----------------------------|

b------------|-8-10-11------|-8-----------|------------|----------------------------|

g-7---7-10-7-|---------10-7-|---10-8-10-7-|-8-7---8-10-|----------------------------|

d---8--------|--------------|-------------|-----8------|----------------------------|

a------------|--------------|-------------|------------|----------------------------|

e------------|--------------|-------------|------------|----------------------------|

e------------|--------------|-------------|-------------|------------------------|

b------------|-8-10-11------|-8-----------|-8-10-11-13~-|------------------------|

g-7---7-10-7-|---------10-7-|---10-8-10-7-|-------------|------------------------|

d---8--------|--------------|-------------|-------------|------------------------|

a------------|--------------|-------------|-------------|------------------------|

e------------|--------------|-------------|-------------|------------------------|

Chorus

e-10-11-13~-|-13~-13-13-11-10----|-10-13-----|-13~-13-13-11-10----|--------------|

b-----------|-----------------13-|-------11~-|-----------------13-|--------------|

g-----------|--------------------|-----------|--------------------|--------------|

d-----------|--------------------|-----------|--------------------|--------------|

a-----------|--------------------|-----------|--------------------|--------------|

e-----------|--------------------|-----------|--------------------|--------------|

e-10-13-----|-13-11-10----10----|----13----13-|----15-13-11-13-18/---------------|

b-------11~-|----------13----11-|-11----11----|-11-------------------------------|

g-----------|-------------------|-------------|----------------------------------|

d-----------|-------------------|-------------|----------------------------------|

a-----------|-------------------|-------------|----------------------------------|

e-----------|-------------------|-------------|----------------------------------|

Verse 2

e------------|--------------|----------------|--------------|--------------------|

b------------|-8-10-11------|-8--------------|--------------|--------------------|

g-7---7-10-7-|---------10-7-|---10-8-10-8h10p|-8-7------10~-|--------------------|

d---8--------|--------------|----------------|-----10-8-----|--------------------|

a------------|--------------|----------------|--------------|--------------------|

e------------|--------------|----------------|--------------|--------------------|

e------------|--------------|-------------|-------------|------------------------|

b------------|-8-10-11------|-8-----------|-8-10-11-13~-|------------------------|

g-7---7-10-7-|---------10-7-|---10-8-10-7-|-------------|------------------------|

d---8--------|--------------|-------------|-------------|------------------------|

a------------|--------------|-------------|-------------|------------------------|

e------------|--------------|-------------|-------------|------------------------|

Get this song at:  amazon.com

Share your thoughts

0 Comments found