Misc Cartoons

Misc Cartoons - Futurama Grunge Version guitar tab

e------------------------------------------------------------

b------------------------------------------------------------

g------------------------------------------------------------

d-----------5-5-5-----------3-3-3-2-------1-1-0--------3-3-2-(heavy)

a-5-5-5-x-x-3-3-3-3-3-3-x-x-1-1-1-0-5-5-5-3-3-2--3-3-3-1-1-0-

e-3-3-3-x-x-------1-1-1-x-x---------3-3-3--------1-1-1-------

e------------------------------------------------------------

b------------------------------------------------------------

g------------------------------------------------------------

d------5-5-------3-3-------5-5-------3-3---------------------

a-5-5--3-3--3-3--1-1--5-5--3-3--3-3--1-1---------------------

e-3-3-------1-1-------3-3-------1-1--------------------------

Then repeat the first fig. with random picking and scraping and inensity until the end

which is

e------------------------------------------------------------

b------------------------------------------------------------

g------------------------------------------------------------

d----------------3-------------------------------------------

a----------------3-------------------------------------------

e----------------1-------------------------------------------

Get this song at:  amazon.com

Share your thoughts

0 Comments found