Misc Cartoons

Misc Cartoons - Fururama - Slurms Mackenzie guitar tab

----------------------------------------------------------------------------

slurms mackenzie song

----------------------------------------------------------------------------

Tabbed by:otherandomhero

Email:snowboardchin@mn.rr.com

this is a really cool song but i havent seen any tabs, so here it is!

Tuning:standard

e|-------------------------------------------------------------------------|

B|-------------------------------------------------------------------------|

G|-------------------------------------------------------------------------|

D|-------------------------------------------------------------------------|

A|-----2-3-5-5-5-3-2-3-3-3-2-h3-5-5-5-3-2-----2-3-5-5-5-3-2-3-7-7-3-5-5-5--|

E|-3-3------------------------------------3-3------------------------------|

e|-------------------------------------------------------------------------|

B|-------------------------------------------------------------------------|

G|-------------------------------------------------------------------------|

D|----------4-5-7-7-7-5-4-----2-3-5-5-5-3-2--------------------------------|

A|-7-5--5-5---------------3-3-------------------2-3-5-5-5-3-2-3-3-3-2-3-5--|

E|------------------------------------------3-3----------------------------|

e|-------------------------|

B|-------------------------|

G|-------------------------|

D|-3-3---3--3-3-3-3---3-5--|

A|-----5------------5------|

E|-------------------------|

that's it! questions or comments? please email me about it.

Get this song at:  amazon.com sheetmusicplus.com

Share your thoughts

0 Comments found