Misc Cartoons

Misc Cartoons - Code Lyoko Theme guitar tab

This is the full version of the song 100% right

Main Riff:

e|-------8-----6-----5----------8-----6-----5--------------------------------|

B|--6-6-----6-----6-----6----6-----6-----6-----6-----------------------------|

G|---------------------------------------------------------------------------|

D|---------------------------------------------------------------------------|

A|---------------------------------------------------------------------------|

E|---------------------------------------------------------------------------|

e|-----8-----6-----5------------8-----6-5------------------------------------|

B|--6-----6-----6-----6------6-----6-------6-8-------------------------------|

G|---------------------------------------------------------------------------|

D|---------------------------------------------------------------------------|

A|---------------------------------------------------------------------------|

E|---------------------------------------------------------------------------|

Guitar 2:

e|---------------------------------------------------------------------------|

B|---------------------------------------------------------------------------|

G|---------------------------------------------------------------------------|

D|---------------------------------------------------------------------------|

A|---8--3--5--1--6-----------------------------------------------------------|

E|---------------------------------------------------------------------------|

Chords Used:

F C5 Dm Bb C F5 D5 Bb5

e|-----------------------1--------------0-----------------------|

B|----6------------------3-------3------1-----------------------|

G|----5--------5---------2-------3------0----10--7----3---------|

D|----7--------5---------0-------3------2----10--7----3---------|

A|----8--------3-----------------1------3----8---5----1---------|

E|--------------------------------------------------------------|

Intro: F C5 Dm Bb

Verse:

F C5 Dm Bb F

There is a world there is virutal and different

C5 Dm Bb Bb

It can be so cold It makes us stand up Oh I tried

C Dm C

I hope your alive Your fear is stated to the start

Chorus:

F5 C5

Here we are Going far to save all that we love

D5 Bb5

If we give what we got we will make it through

F5 C5 Dm

Here we are like a star shining bright on the world today

Bb

Make evil go away

F5 C5 D5

Code lyoko will withstand it all

Bb5 F5 C5 D5

Code Lyoko be when you call Code lyko we will stand real tall

Bb5

Code lyko strong after all

Bridge:

Bb C Dm F5

We'll do are best to never let you down

Bb C Dm F5

We're upto the test to turn this world around

Added by tabs-database.com and our distinguished partners

Get this song at:  amazon.com sheetmusicplus.com

Share your thoughts

0 Comments found