Misc Cartoons

Misc Cartoons - Blue Gender Theme guitar tab

Blue Gender

Opening Theme

Tokihanate (Set Me Free)

Tabbed by Paul Cosgrove

(victimoftherevolution@hotmail.com)

---------------------------------------------------------------------------->>

* = palm mute

^ = bend

---------------------------------------------------------------------------->>

Intro:

E|-x-x-x-x-x-x-|---------------|-x-x-x-x-x-x-|---------------|

B|-x-x-x-x-x-x-|---------------|-x-x-x-x-x-x-|---------------|

G|-6-64-4/6-6-|---------------|-6-64-4/6-6-|---------------|

D|-6-64-4/6-6-|-4^4---4-2-----|-6-64-4/6-6-|-4^4-2-4-2-----|

A|-4-42-2/4-4-|-----4-----4-4-|-4-42-2/4-4-|-----------4-4-|

E|-x-x-x-x-x-x-|---------------|-x-x-x-x-x-x-|---------------|

E|-x-x-x-x-x-x-|---------------|-x-x-x-x-x-x-|---------------|

B|-x-x-x-x-x-x-|---------------|-x-x-x-x-x-x-|---------------|

G|-6-64-4/6-6-|---------------|-6-64-4/6-6-|---------------|

D|-6-64-4/6-6-|-4^4---4-2-----|-6-64-4/6-6-|---2-4-4^4-2---|

A|-4-42-2/4-4-|-----4-----4-4-|-4-42-2/4-4-|-4-----------4-|

E|-x-x-x-x-x-x-|---------------|-x-x-x-x-x-x-|---------------|

---------------------------------------------------------------------------->>

Verse:

E|-4-4-4-4-4-4-4-4-|-4-4-4-4-4-4-4-4-|-0-0-0-0-0-0-0-0-|-2-2-2-2-0-0-0-0-|

B|-5-5-5-5-5-5-5-5-|-5-5-5-5-5-5-5-5-|-2-2-2-2-2-2-2-2-|-0-0-0-0-0-0-0-0-|

G|-6-6-6-6-6-6-6-6-|-6-6-6-6-6-6-6-6-|-2-2-2-2-2-2-2-2-|-2-2-2-2-2-2-2-2-|

D|-6-6-6-6-6-6-6-6-|-6-6-6-6-6-6-6-6-|-2-2-2-2-2-2-2-2-|-2-2-2-2-2-2-2-2-|

A|-4-4-4-4-4-4-4-4-|-4-4-4-4-4-4-4-4-|-0-0-0-0-0-0-0-0-|-0-0-0-0-0-0-0-0-|

E|-x-x-x-x-x-x-x-x-|-x-x-x-x-x-x-x-x-|-x-x-x-x-x-x-x-x-|-x-x-x-x-x-x-x-x-|

* * * * * * * * * * * * * * * * * * * * * * * * * * * * * * * *

E|-2-2-2-2-2-2-2-2-|-2-2-2-2-2-2-2-2-|-6-6-6-6-6-6-6-6-|-4-----4-----4---|

B|-2-2-2-2-2-2-2-2-|-4-4-4-4-4-4-4-4-|-8-8-8-8-8-8-8-8-|-4-----4-----4---|

G|-2-2-2-2-2-2-2-2-|-4-4-4-4-4-4-4-4-|-8-8-8-8-8-8-8-8-|-5-----5-----5---|

D|-4-4-4-4-4-4-4-4-|-4-4-4-4-4-4-4-4-|-8-8-8-8-8-8-8-8-|-6-----6-----6---|

A|-4-4-4-4-4-4-4-4-|-2-2-2-2-2-2-2-2-|-6-6-6-6-6-6-6-6-|-6-----6-----6---|

E|-2-2-2-2-2-2-2-2-|-x-x-x-x-x-x-x-x-|-x-x-x-x-x-x-x-x-|-4-----4-----4---|

* * * * * * * * * * * * * * * * * * * * * * * *

E|-4-4-4-4-4-4-4-4-|-4-4-4-4-4-4-4-4-|-0-0-0-0-0-0-0-0-|-2-2-2-2-0-0-0-0-|

B|-5-5-5-5-5-5-5-5-|-5-5-5-5-5-5-5-5-|-2-2-2-2-2-2-2-2-|-0-0-0-0-0-0-0-0-|

G|-6-6-6-6-6-6-6-6-|-6-6-6-6-6-6-6-6-|-2-2-2-2-2-2-2-2-|-2-2-2-2-2-2-2-2-|

D|-6-6-6-6-6-6-6-6-|-6-6-6-6-6-6-6-6-|-2-2-2-2-2-2-2-2-|-2-2-2-2-2-2-2-2-|

A|-4-4-4-4-4-4-4-4-|-4-4-4-4-4-4-4-4-|-0-0-0-0-0-0-0-0-|-0-0-0-0-0-0-0-0-|

E|-x-x-x-x-x-x-x-x-|-x-x-x-x-x-x-x-x-|-x-x-x-x-x-x-x-x-|-x-x-x-x-x-x-x-x-|

* * * * * * * * * * * * * * * * * * * * * * * * * * * * * * * *

E|-2-2-2-2-2-2-2-2-|-2-2-2-2-2-2-2-2-|-4-4-4-4-4-4-----|-----------------|

B|-2-2-2-2-2-2-2-2-|-4-4-4-4-4-4-4-4-|-5-5-5-5-5-5-----|-----------------|

G|-2-2-2-2-2-2-2-2-|-4-4-4-4-4-4-4-4-|-6-6-4-4-4-6-----|-----------------|

D|-4-4-4-4-4-4-4-4-|-4-4-4-4-4-4-4-4-|-6-6-6-6-6-6---2-|-4-4^4-2---------|

A|-4-4-4-4-4-4-4-4-|-2-2-2-2-2-2-2-2-|-4-4-4-4-4-4-4---|---------4-------|

E|-2-2-2-2-2-2-2-2-|-x-x-x-x-x-x-x-x-|-x-x-x-x-x-x-----|-----------------|

* * * * * * * * * * * * * * * * * * * * * *

---------------------------------------------------------------------------->>

Pre-Chorus:

E|-0-0---0-0:------|-----------------|-0:--------0-----|-2:----------2---|

B|-0-0---0-2:------|-----------------|-0:--------0-----|-4:----------2---|

G|-2-2---1-2:------|-----------------|-1:--------1-----|-4:----------2---|

D|-2-2---2-2:------|-------------1-2-|-2:--------2-4-2-|-4:----------4---|

A|-0-0---2-0:------|-----------4-----|-2:--------2-----|-2:----------4---|

E|-X-X---0-X-------|-----------------|-0:--------0-----|-x-----------2---|

E|-0-0---0-0:------|-----------------|-2:--------------|-2---2-2---2-2---|

B|-0-0---0-2:------|-----------------|-4:--------------|-4---4-4---4-4---|

G|-2-2---1-2:------|-----------------|-4-2---2-4-5-4:--|-4---4-4---4-4---|

D|-2-2---2-2:------|-------------1-2-|-4---4-----------|-4---4-4---4-4---|

A|-2-2---2-2:------|-----------4-----|-2:--------------|-2---2-2---2-2---|

E|-X-X---0-X-------|-----------------|-X---------------|-X---X-X---X-X---|

---------------------------------------------------------------------------->>

Chorus:

E|-3---3-3---3-3-3-|-2---2-2---2-2-2-|-0---0-0---0-0-0-|-0---0-0---0-0-0-|

B|-3---3-3---3-3-3-|-3---3-3---3-3-3-|-1---1-1---1-1-1-|-0---0-0---0-0-0-|

G|-0---0-0---0-0-0-|-2---2-2---2-2-2-|-2---2-2---2-2-2-|-0---0-0---0-0-0-|

D|-0---0-0---0-0-0-|-0---0-0---0-0-0-|-2---2-2---2-2-2-|-2---2-2---2-2-2-|

A|-2---2-2---2-2-2-|-X---X-X---X-X-X-|-0---0-0---0-0-0-|-2---2-2---2-2-2-|

E|-3---3-3---3-3-3-|-X---X-X---X-X-X-|-X---X-X---X-X-X-|-0---0-0---0-0-0-|

E|-0---0-0---0-0-0-|-3-3-0:----0-0---|-2---2---2-2:----|-2---2---2-2:----|

B|-1---1-1---1-1-1-|-3-3-0:----0-0---|-2---2---2-2:----|-4---4---4-4:----|

G|-0---0-0---0-0-0-|-0-0-0:----0-0---|-2---2---2-2:----|-4---4---4-4:----|

D|-2---2-2---2-2-2-|-0-0-2:----2-2---|-4---4---4-4:----|-4---4---4-4:----|

A|-3---3-3---3-3-3-|-X-X-2:----2-2---|-4---4---4-4:----|-2---2---2-2:----|

E|-3---3-3---3-3-3-|-X-X-0:----0-0---|-2---2---2-2:----|-X---X---X-X-----|

E|-3---3-3---3-3-3-|-2---2-2---2-2-2-|-0---0-0---0-0-0-|-0---0-0---0-0-0-|

B|-3---3-3---3-3-3-|-3---3-3---3-3-3-|-1---1-1---1-1-1-|-0---0-0---0-0-0-|

G|-0---0-0---0-0-0-|-2---2-2---2-2-2-|-2---2-2---2-2-2-|-0---0-0---0-0-0-|

D|-0---0-0---0-0-0-|-0---0-0---0-0-0-|-2---2-2---2-2-2-|-2---2-2---2-2-2-|

A|-2---2-2---2-2-2-|-X---X-X---X-X-X-|-0---0-0---0-0-0-|-2---2-2---2-2-2-|

E|-3---3-3---3-3-3-|-X---X-X---X-X-X-|-X---X-X---X-X-X-|-0---0-0---0-0-0-|

E|-0---0-0---0-0-0-|-3-3-0:----0-0---|-2---2---2-2:----|-2---2---2-2:----|

B|-1---1-1---1-1-1-|-3-3-0:----0-0---|-4---4---4-4:----|-4---4---4-4:----|

G|-0---0-0---0-0-0-|-0-0-0:----0-0---|-4---4---4-4:----|-4---4---4-4:----|

D|-2---2-2---2-2-2-|-0-0-2:----2-2---|-4---4---4-4:----|-4---4---4-4:----|

A|-3---3-3---3-3-3-|-X-X-2:----2-2---|-2---2---2-2:----|-2---2---2-2:----|

E|-3---3-3---3-3-3-|-X-X-0:----0-0---|-X---X---X-X-----|-X---X---X-X-----|

---------------------------------------------------------------------------->>

To Verse (& outro):

E|-0:--------------|-0:--------------|-0:----------0-0:|-----------------|

B|-0:--------------|-0:--------------|-0:----------0-0:|-----------------|

G|-0-2^2---2-0-----|-0-2^2---2-0-----|-0-2^2---2-0-0-0:|-----------------|

D|-2-----2-----2-2-|-2-----2-----2-2-|-2-----2-----2-2:|-----------------|

A|-2:--------------|-2:--------------|-2:----------2-2:|-----------------|

E|-0:--------------|-0:--------------|-0:----------0-0:|-----------------|

---------------------------------------------------------------------------->>

Bridge:

E|-----------------|-----------------|-----------------|---x-x---x-x-----|

B|-----------------|-----------------|-----------------|---x-x---x-x-----|

G|-----------------|-----------------|-----------------|---4-4---4-4-----|

D|---2-4^4-2-2:----|---2-4^4-2-2:----|---2-4^4-2-2:----|---4-4---4-4-----|

A|-3---------------|-2---------------|-1---------------|-2-2-2---2-2-----|

E|-----------------|-----------------|-----------------|---x-x---x-x-----|

E|-----------------|-----------------|-----------------|---x-x---x-x-----|

B|-----------------|-----------------|-----------------|---x-x---x-x-----|

G|-----------------|-----------------|-----------------|---4-4---4-4-----|

D|---2-4^4-2-2:----|---2-4^4-2-2:----|---2-4^4-2-2:----|---4-4---4-4-----|

A|-3---------------|-2---------------|-1---------------|-2-2-2---2-2-----|

E|-----------------|-----------------|-----------------|---x-x---x-x-----|

---------------------------------------------------------------------------->>

Play Order:

Intro>Verse>PreChorus>Chorus>Verse>PreChorus>Chorus>Bridge>Chorus>Outro

---------------------------------------------------------------------------->>

Get this song at:  amazon.com sheetmusicplus.com

Share your thoughts

0 Comments found