Misc Cartoons

Misc Cartoons - Beavis And Butthead Theme Intro guitar tab

Title: Bevis and Butthead Theme

Tabber: Me (ana_lizzie@hotmail.com)

Date: today

Well..i tried. i don't know if it's right but it sounds good to me! Enjoy!

E--------------------------------|-------------------------------|

B--------10----------8-----------|-----10-10--------8------------|

G-----------9------------7-7---9-|-9---------9-----------7-7--9--|

D----7----------7------7---------|---7---------7------7----------| x2(last part)

A--------------------------------|-------------------------------|

E--------------------------------|-------------------------------|

E-----------------------|

B-----------------------|

G-----------------------|

D---7-7-7---7-7-7-------|

A---7-7-7---7-7-7-------|

E---5-5-5---5-5-5-------|

Get this song at:  amazon.com sheetmusicplus.com

Share your thoughts

0 Comments found