Misc Cartoons

Misc Cartoons - A Whole New World *both Singers* guitar tab

1|-----------------------------------------------------------------------------------|

2|-3-1-4-3-----3-1-4-3--3-1--1-0-3-1--1----------1----3-1-4-3------3-1-4-------------|

3|---------3---------------3--------2--3-2-3-0-3--3-----------3----------------------|

4|-----------3---------------------------------------------------3-------3-----------|

5|-----------------------------------------------------------------------------------|

6|-----------------------------------------------------------------------------------|

1|-------------------------------------------3-1-----3-1-------------1-5-3-1--5-6-1--|

2|-3---3-1--1--0--3--1--1----------1--3--3-4-----3-4-----1-4-3-3-3-4-----------------|

3|---3-----------------2--3-2-3-0-3-3----------------------------------------3-------|

4|-----------------------------------------------------------------------------------|

5|-----------------------------------------------------------------------------------|

6|-----------------------------------------------------------------------------------|

1|-----------------------------------------------------------------------------------|

2|---3-1---1-1-4---------------------------------------------------------------------|

3|-3-----3---------------------------------------------------------------------------|

4|-----------------------------------------------------------------------------------|

5|-----------------------------------------------------------------------------------|

6|-----------------------------------------------------------------------------------|

Repeat this again for the girl part... And vwola (or how ever you spell that) you have it

Get this song at:  amazon.com sheetmusicplus.com

Share your thoughts

0 Comments found