Misc Cartoons

Princess Mononoke - Legend Of Ashitaka Tabs



More from Misc Cartoons

Misc Cartoons Tabs
Misc Cartoons Chords

|--------0--0-------------------------------------------------------|
|-----------1-----3-----------1--0----------------------------------|
|-----2-----2--2-----2-----------------0--2-------------------------|
|--2-----------------------2--------2--------2----------------------|
|-----------------------------------0-----------0-------------------|
|-----------1-----------3-------------------------------------------|

|--------0--3-----------3--0--3--0--0--3----------------------------|
|-----1-----1-----1-----3--1-----3--0-----1--0----------------------|
|--2-----------0-----0--2--2-----2-----------------0--2-------------|
|-----------2-----------0--------0--------------2-------------------|
|--------------------------3--------------------------0--3--2--3----|
|-----------------------------------0-----3-----0-------------------|

|--------0--0-------------------------------------------------------|
|-----------1-----3-----------1--0----------------------------------|
|-----2-----2--2-----2-----------------0--2-------------------------|
|--2-----------------------2--------2--------2----------------------|
|-----------------------------------0-----------0-------------------|
|-----------1-----------3-------------------------------------------|

|--------0--3--------0--2-----------0-------------------------------|
|-----1-----0-----------3--------3--0-------------------------------|
|--2--------------0-----------2--------0----------------------------|
|--------------2-----------4--------------4--2----------------------|
|-----------------------2-----------------------2-------------------|
|-----------0-----------------------0-------------------------------|

|--0--0----0-------------------0--0----0----------------------------|
|-----1--3------3---------0-------1--3------3p2p1p0--0-----------1--|
|-----2------2-------0--2---------2------2--------------------0-----|
|-------------------2-------2------------------------------4--------|
|------------------3------------------------------------2-----------|
|-----1---------------------------1------------------0--------------|

|--0--------0-----0--3--0-------------------------------------------|
|--1-----1-----3-----------3----------------------------------------|
|--2--2-------------------------------------------------------------|
|--------------------0--------2-------------------------------------|
|--------------------------0----------------------------------------|
|--1-----------3----------------------------------------------------|

|-----------------0--------0-----0--3--0----------------------------|
|--1-----1--1--3--1-----1-----3-----------3-------------------------|
|-----2-----------2--2--------------------------2-------------------|
|-----------2-----------------------0--------2-----2----------------|
|--------0--------------------------------0-----------2--3--2-------|
|-----------------1-----------3--------------------------------0----|

|--------------------------------------0------------0-----------------0--|
|-----------1--------------1--3--1--3------3p2p1p0-----3--3-----3--------|
|-----0--2--------------2------------------------------------------2-----|
|--3-----------3-----3------------------------------2--0--------0--------|
|--1--------------1-----------0---------------------------2--0--2--------|
|----------------------------------------0-------------------------0-----|

|--0----------------------------------------------------------------|
|--1-----3-----------1--0-------------------------------------------|
|--2--2-----2-----------------0--2----------------------------------|
|-----------------2--------2--------2-------------------------------|
|--------------------------0-----------0----------------------------|
|--1-----------3----------------------------------------------------|

|--------0--3--------0--2-----------0-------------------------------|
|-----1-----0-----------3--------3--0-------------------------------|
|--2--------------0-----------2-------------------------------------|
|--------------2-----------4----------------------------------------|
|-----------------------2--------------2-----2----------------------|
|-----------0-----------------------0-----3-----0-------------------|

|--------0--0-------------------------------------------------------|
|-----------1-----3-----------1--0----------------------------------|
|-----2-----2--2-----2-----------------0--2-------------------------|
|--2-----------------------2--------2--------2----------------------|
|-----------------------------------0-----------0-------------------|
|-----------1-----------3-------------------------------------------|

|--------0--3-----------3--0--3--0--0--3----------------------------|
|-----1-----1-----1-----3--1-----3--0-----1--0----------------------|
|--2-----------0-----0--2--2-----2-----------------0--2-------------|
|-----------2-----------0--------0--------------2-------------------|
|--------------------------3--------------------------0--3--2--3----|
|-----------------------------------0-----3-----0-------------------|

|-----------------------------------------------------------------------------|
|--------------------------------------------------------------------------2--|
|--2--0--2--0--2--0--2--0--2--0--2--0--2--0--2--0--2--0--2--0--2--0--2--0--2--|
|--2-----------------------0-----------------------0-----------------------2--|
|--------------------------------------------------------------------------0--|
|--1-----------------------3-----------------------3--------------------------|

|-------------------------------------------------------------------|
|--(4)<11>----(4)<15>-----------------------------------------------|
|-------------------------------------------------------------------|
|-------------------------------------------------------------------|
|-------------------------------------------------------------------|
|-------------------------------------------------------------------|
Get this song at amazon.com      Ebay     Ringtones Ringtones  


Learn to play: Songwriting, Piano, Harmonica, Guitar

Related Misc Cartoons Tabs

Mickey Mouse Theme tabs
Naruto- (i Siad Im Naruto) tabs
Scooby-doo Theme tabs
My Dad The Rock Star Theme tabs
X-men Theme Bass tabs
Jungle Book - Bear Necessities tabs
Spiderman Theme tabs
Pingu tabs
Aladdin Theme tabs
Beck - I Call You Love tabs
Petit Ours Brun Theme tabs
Simpsons Theme tabs
Pokemon Theme tabs
The Simpsons tabs
Simpsons - Lisas Protest tabs
Hellsing - Shi-kuretto Karuma Serenade Acoustic Passage tabs
Futurama Theme tabs
A Whole New World *both Singers* tabs
Sailor Moon Theme tabs
Happy Tree Friends Theme tabs


Guitar Tabs









All tabs are property and copyright of their owners. All tabs provided for educational purposes only. Privacy Policy, DMCA