Metallica

Metallica - Whereever I May Roam guitar tab

Metallica – Wherever I may Roam

jordan porreca

Intro

|------------------------------------------------------------------|

|------5-5/6-5---------8-8/10-6----5-----5-5/6-5---(5)-------------|

|0----------------------------------------------------------------0|

|0-----2-2/3-2---------5-5/7--3----2-----2-2/3-2---(2)------------0|

|------------------------------------------------------------------|

|0---------------0---------------0---------------------------------|

|------------------------------------------------------------------|

|------5-5/6-5---------8-8/10-10/6---5-----------------------------|

|------------------------------------------------------------------|

|------2-2/3-2---------5-5/7---7/3---2-----------------------------|

|------------------------------------------------------------------|

|0---------------0-------------------0-----------------------5s20-|

|----------------------------------------------------------------------------

|----------------------------------------------------------------------------

|----------------------------------------------------------------------------

|--------------------5-5/7-------------------------------------------5-5/7---

|-----7-7h8-7vvv------------8----7---7-7h8-7vvv--------7-7h8-7vvv------------

|0-------------------------------0-----------------0-------------------------

-------------------|

-------------------|

-------------------|

-------------------|

8-----7--7-7h8-7vvv|

------0------------|

|------------------------|

|------------------------|

|------------------------|

|------------------------|

|(7)-----7---8---9---10-|

|--------5---6---7---8--|

Rhy fig 1

|-------------------------------------------------------------------|

|-------------------------------------------------------------------|

|0-----------------------------------------------------------------0|

|0----------------------5-5s7-----9--------------------------------0|

|--2-----7-7h8-7vv--7----------8---7-----7-7h8-7vv--7---8---9---10--|

|--0---0------------0--0-----------0---0------------5---6---7---8---|

Rhy fig 2

|-----------------------------------------------------------------|

|-----------------------------------------------------------------|

|-----------------------------------------------------------------|

|----------------------5-5s7-----9--------------------------------|

|5-6-7-8-7h8-7vv-7-----------8---7-----7-7h8-7vv-7---8---9---10---|

|----------------0---0-----------0---0-----------5---6---7---8----|

pm------ - -

|---------------------------------------------------------------------------|

|---------------------------------------------------------------------------|

|---------------------------------------------------------------------------|

|---------2-----------------------------------3-----------------------------|

|5-6-7-8--2---------------------------------3-------------------------------|

|---------0-------------------------------1---------------------------------|

pm------ ------

And the road becomes my bride And the road becomes my bride

|----------------------------------------------------------------|

|----------------------------------------------------------------|

|------0---------------------------------------------------------|

|----2-------------------------------3---------------------------|

|--2-------------------------------3-----------------------------|

|0-------------------------------1-------------------------3s10-|

pm------ -----

E5--------------|----------------|Bb5-------------|----------------|

I have stripped of all but pride, so in her I do con-

A5--------------|----------------|Bb5-------------|------------E-E-|

fide, and she keeps me satis- fied Gives me all I need

And with dust in throne I crave, only knowledge will I save

|--------0---------------0---------------------------------------|

|------------0---------------0-----------3---------------3-------|

|--------------------------------------------3---------------3---|

|-----------------------------------3---------------3------------|

|----2---------------2-----------1---------------1---------------|

|0---------------0-----------------------------------------------|

To the game you stay a slave rover, wanderer

|----------------------------------------------------------------|

|--------3---------------3---------------3---------------3-------|

|------------3---------------3---------------3---------------3---|

|------------------------------------3---------------3-----------|

|----1---------------1-----------1---------------1---------------|

|3---------------3-----------------------------------------------|

Pre – Chorus

Oh But I'll take my time anywhere free to speak my mind anywhere

|--------------------------------------------------------------------------|

|--------------------------------------------------------------------------|

|--------------------------------------------------------------------------|

|--------------------------------------5-5s7-----9-------------------------|

|1---1---2---3---5-6-7-8-7h8-7---7-----------8---7-----7-7h8-7vv---7-8-9-10|

|--------------------------------0---0-----------0---0-------------5-6-7-8-|

pm----- -

Oh But I'll take my time anywhere free to speak my mind anywhere

|------------------------------------------------------------------|

|------------------------------------------------------------------|

|------------------------------------------------------------------|

|3---3-------3--------3---2h3-2vv--2---2-------2-------2---2h3-2vv-|

|3---3-------3--------3------------2---2-------2-------2-----------|

|1---1---1-1-1----1-1-1------------0---0---0-0-0---0-0-0-----------|

pm-- --- --- ---

And I'll redefine anywhere

|--------------------------------|

|--------------------------------|

|3---3-------3-------3-----------|

|3---3-------3-------3---2h3-2vv-|

|1---1---1-1-1---1-1-1-----------|

|--------------------------------|

pm-- ---

Chorus

A5 G5

Anywhere I roam Where I lay my head is home, yeah

Rhy fig 1

And the earth becomes my throne And the earth becomes my throne

|---------|-----------------------------------------------------------------|

|---------|-----------------------------------------------------------------|

|---------|-----------------------------------------------------------------|

|---------|-2-----------------------------------3---------------------------|

|-5-6-7-8-|-2---------------------------------3-----------------------------|

|---------|-0-------------------------------1--------------------------3s10|

pm------- to coda second time

E5--------------|----------------|Bb5-------------|----------------|

I adapt to the unknown, under wandering stars I've

A5--------------|----------------|Bb5-------------|------------E-E-|

grown, by myself but not alone I asked no-one

And my ties are severed clean, less I have the more I

|--------0---------------0---------------------------------------|

|------------0---------------0-----------3---------------3-------|

|--------------------------------------------3---------------3---|

|-----------------------------------3---------------3------------|

|----2---------------2-----------1---------------1---------------|

|0---------------0-----------------------------------------------|

gain Off the beaten path I rain rover, wanderer

|----------------------------------------------------------------|

|--------3---------------3---------------3---------------3-------|

|------------3---------------3---------------3---------------3---|

|------------------------------------3---------------3-----------|

|----1---------------1-----------1---------------1---------------|

|3---------------3-----------------------------------------------|

CODA

Interlude

|---------------------------------------------------------------------------|

|---------------------------------------------------------------------------|

|--------------------------------9--------------------------8--9--11/12--8--|

|-----------------6-7-6vv--9-10-----------------6--7--9--10-----------------|

|2----/7-7-8-7vv-------------------2------7--8------------------------------|

|0---0-----------------------------0--0-0-----------------------------------|

pm -------------------

|---------------------------------------------------------------------------|

|---------------------------------------------------------------------------|

|--------------------------------9vv------------------------8--9--11-12--8vv|

|-----------------6-7-6vv--9-10-----------------6--7--9--10-----------------|

|2---2---7-8-7vv-------------------2--2---7--8------------------------------|

|0---0-0---------------------------0--0-0-----------------------------------|

pm------------

Play pre - chorus and chorus again

Solo /wah

|-12-----------------------------------------------------------------|

|-12------------------------------9-12p9-9-12p9-9-10-9---------------|

|-------9vvv-----9--10b11r10-11b13-----------------------10p9-10p9----|

|------------10----------------------------------------------------10-|

|---------------------------------------------------------------------|

|---------------------------------------------------------------------|

|-12-------------------------------------------|

|-12----------------------15b17r15---15b17vvv--|

|--------9vvv----9--9b10------------------------|

|-------------10--------------------------------|

|-----------------------------------------------|

|-----------------------------------------------|

T T T T T T

|-17p16-17p16p13p12-17p16-17p16p13p12-17p16-17p16p13p12-

|-------------------------------------------------------

|-------------------------------------------------------

|-------------------------------------------------------

|-------------------------------------------------------

|-------------------------------------------------------

T T T T

17p16-17p16p13p12-17p16-17p16p13p12-|

------------------------------------|

------------------------------------|

------------------------------------|

------------------------------------|

------------------------------------|

T T T T T T

|-17p16-17p16p13p12-17p16-17p16p13p12-17p16-17p16p13p12----|

|----------------------------------------------------------|

|----------------------------------------------------------|

|----------------------------------------------------------|

|----------------------------------------------------------|

|----------------------------------------------------------|

|----------------------------------------------------------------------------

|15p13p12-15p12-15p13p12-15p12-15p12h17p15p12-12-15p12-17p15p12-12-15p13p12-1

|----------------------------------------------------------------------------

|----------------------------------------------------------------------------

|----------------------------------------------------------------------------

|----------------------------------------------------------------------------

---------------------|

13p12----------------|

-----14-13-14b16r14--|

-------------------13|

---------------------|

---------------------|

T.B

|-------------------------------------------------16-17-17-17---16-------

|-15b17r15--15b17vvv-15b17r15--12--15///-16-17------------------18p17-

|------------------------------------------------------------------------

|------------------------------------------------------------------------

|------------------------------------------------------------------------

|------------------------------------------------------------------------

-------------------|

17vv17-18p17-12vvv-|

-------------------|

-------------------|

-------------------|

-------------------|

T.B T.B

|------------------------------------------------------------17/19--19///|

|-12-12-12--12--12s15--15-15///--15-15-12-13--14-/16-/18--17/19--19///|

|-12-12-12--12--12s15--15-15///--15-15-12-13--14-/16-/18--17/19--19///|

|-12-12-12--12--12s15--15-15///---------------//--//--//-----------------|

|---------------------------------------------------------------------------|

|---------------------------------------------------------------------------|

|-22b24r22--22b24r22vvvvvvvv-------------------------|

|----------------------------------------------------|

|----------------------------------------------------|

|----------------------------------------------------|

|----------------------------------------------------|

|----------------------------------------------------|

|-19p16-------19-19p16-------19-19p16-------19-19p16-16-------16-19p16-1613

|------17-17----------17-17----------17-17-------------17-17----------------

|---------------------------------------------------------------------------

|---------------------------------------------------------------------------

|---------------------------------------------------------------------------

|---------------------------------------------------------------------------

13-13h16p13-12-12--|

-------------------|

-------------------|

-------------------|

-------------------|

-------------------|

|-13p12----12--------------------------------------------|

|-------15----15p13-13-13-13h15p13vvvvvvvvvv-------------|

|--------------------------------------------------------|

|--------------------------------------------------------|

|--------------------------------------------------------|

|--------------------------------------------------------|

Play pre - chorus

last chorus:

A5--------------|----------------|G5--------------|----------------|

Anywhere I roam Where I lay my head is home

C5--------------|----------------|B5--------------|Bb5-------E-G-F#|

Carved upon my stone my body lie, but still I roam yeah yeah

Rhy fig 1

Rhy fig 2 x2

Outro Solo w/ wah

|--16--16p13p12--16p13p12--16----12--16p13p12--16p13p12--|

|--------------------------------------------------------|

|--------------------------------------------------------|

|--------------------------------------------------------|

|--------------------------------------------------------|

|--------------------------------------------------------|

T T T

|--16p13p12--16--17p16p13p12--16p13p12--16p13p12--16--17p16--17p16p13p12-|

|------------------------------------------------------------------------|

|------------------------------------------------------------------------|

|------------------------------------------------------------------------|

|------------------------------------------------------------------------|

|------------------------------------------------------------------------|

|--13h16p13p12-12h13—12h13p12------12--13p12------12-----------------|

|------------------------------15-------------15------15p13------12--|

|------------------------------------------------------------15------|

|--------------------------------------------------------------------|

|--------------------------------------------------------------------|

|--------------------------------------------------------------------|

|----------------------------------------|-----------------------------|

|--13p12---------12vv--12----------------|--15b17----15b17----15b17----|

|---------14p13--------------14p13—14vv--|-----------------------------|

|----------------------------------------|-----------------------------|

|----------------------------------------|-----------------------------|

|----------------------------------------|-----------------------------|

T T T T

|---------------------12-|-17p16-17p16p13p12-16p13p12-17p16-17p16p13p12-|

|-15b17----15b17r15vv----|----------------------------------------------|

|------------------------|----------------------------------------------|

|------------------------|----------------------------------------------|

|------------------------|----------------------------------------------|

|------------------------|----------------------------------------------|

T T

|16p13p12--17p16--17p16p13p12--16p13p12--16p13p12--12----12vv--------|

|-------------------------------------------------------------13p12--|

|--------------------------------------------------------------------|

|--------------------------------------------------------------------|

|--------------------------------------------------------------------|

|--------------------------------------------------------------------|

|--------------------------------------------------------|

|--13p12-------------------12--13p12-----------------12--|

|---------14p13--14----14-------------14p13--14--14------|

|--------------------------------------------------------|

|--------------------------------------------------------|

|--------------------------------------------------------|

|----------------------------------------------------------|

|--13p12-------------------12--13p12-------------------12--|

|---------14p13--14----14-------------14p13--14----14------|

|----------------------------------------------------------|

|----------------------------------------------------------|

|----------------------------------------------------------|

|--------------------------------------------------------------|

|--13p12------13p12------12--13--13p12------12-------------12--|

|---------14---------14-----------------14------14p13--14------|

|--------------------------------------------------------------|

|--------------------------------------------------------------|

|--------------------------------------------------------------|

|----------------------------------------------|

|--15pb17vvv--15pb17vvv--15pb17vvv--15pb17vvv--|

|----------------------------------------------|

|----------------------------------------------|

|----------------------------------------------|

|----------------------------------------------|

|--16-16-16-16-16-16-16-16-16-16-16-16-17-17-17-17-17-17-17-17-17-17-17-17--|

|---------------------------------------------------------------------------|

|---------------------------------------------------------------------------|

|---------------------------------------------------------------------------|

|---------------------------------------------------------------------------|

|---------------------------------------------------------------------------|

|--19-19-19-19-19-19-19-19-19-19-19-19-22-22-22-22-22-22-22-22-22-22-22-17--|

|---------------------------------------------------------------------------|

|---------------------------------------------------------------------------|

|---------------------------------------------------------------------------|

|---------------------------------------------------------------------------|

|---------------------------------------------------------------------------|

|--22b24----22b24----22b24----22b24----|--22b24----22b24vv-|

|--------------------------------------|-------------------|

|--------------------------------------|-------------------|

|--------------------------------------|-------------------|

|--------------------------------------|-------------------|

|--------------------------------------|-------------------|

|------------------12------------------12---------------|

|--9h10--12--9h10------9h10--12--9h10------9h10--12--9h-|

|-------------------------------------------------------|

|-------------------------------------------------------|

|-------------------------------------------------------|

|-------------------------------------------------------|

|------------12------------------12------------------|

|--10--9h10------9h10--12--9h10------9h10--12--9h10--|

|----------------------------------------------------|

|----------------------------------------------------|

|----------------------------------------------------|

|----------------------------------------------------|

|12-------------------------------------|-12vvv-12------12vvv--12------|

|----9h10-12-12p10-10--9h10-12-9h10p9---|----------9-10-----------9-10-|

|-------------------------------------9-|------------------------------|

|---------------------------------------|------------------------------|

|---------------------------------------|------------------------------|

|---------------------------------------|------------------------------|

|12--------------12--------------|-12----------------10vvv----12--13-|

|---9-10-12-9-10----9-10-12-9-10-|----9-10-12-10-12--------15--------|

|--------------------------------|-----------------------------------|

|--------------------------------|-----------------------------------|

|--------------------------------|-----------------------------------|

|--------------------------------|-----------------------------------|

|----16----13----12----12h13p12------12------------------|

|-------------------15-----------15------15--13--12--13--|

|--------------------------------------------------------|

|--------------------------------------------------------|

|--------------------------------------------------------|

|--------------------------------------------------------|

|-------------------------------------------------------12--|

|--13p12------------13p12---------13p12-------------12------|

|---------14p13h14---------14p13---------14p13--14----------|

|-----------------------------------------------------------|

|-----------------------------------------------------------|

|-----------------------------------------------------------|

|------------------------------------------------|

|------------------------13p12-------------------|

|--12---------12----------------14p13--14----12--|

|-------14p12------------------------------------|

|------------------------------------------------|

|------------------------------------------------|

|----------------------------------|------------------------------------|

|13p12------------13p12------------|-13p12---------13-------13p12----12-|

|-----14p13/14p12-----14p13/14p12|------14p13-14----14p13--------14---|

|------------/---------------/---|------------------------------------|

|----------------------------------|------------------------------------|

|----------------------------------|------------------------------------|

|--------12---------12---------12----------12---13-|-13--12--13-12-12-13-12-|

|-10h13------10h13------10h13-------10h13----------|------------------------|

|--------------------------------------------------|------------------------|

|--------------------------------------------------|------------------------|

|--------------------------------------------------|------------------------|

|--------------------------------------------------|------------------------|

|-12-13-12-13-13p16--12--13--16--16b17--16--17--19--16--20--17--21--18--22-|

|--------------------------------------------------------------|

|--------------------------------------------------------------|

|--------------------------------------------------------------|

|--------------------------------------------------------------|

|--------------------------------------------------------------|

|--22b24----22b24----22b24-r22-b24vv----------|

|---------------------------------------------|

|---------------------------------------------|

|---------------------------------------------|

|---------------------------------------------|

|---------------------------------------------|

Get this song at:  amazon.com

Share your thoughts

0 Comments found