Metallica

Metallica - Unnamed Feeling guitar tab

Artist: METALLICA

song name: UNNAMED FEELING

this song is in drop C tuning (CGCFAD)

Mega distortion x = palm mute

D|-------------------|

A|-------------------|

F|-------------------|

C|-0-----------------|

G|-0---0---0--0-0-0--|

C|-0---0---0--0-0-0--|

x x x x x

D|------------------|

A|------------------|

F|------------------|

C|--0---------------|

G|--0---0---0--0-0--|

C|--0---0---0--0-0--|

x x x x

Play this only the 1st time

D|-----------|---------------|

A|-----------|---------------|

F|-----------|---------------|

C|-----------|---------------|

G|-0-0--0-0--|-0-0-0-0--0-0--|

C|-0-0--0-0--|-0-0-0-0--0-0--|

x x x x x x x x x x

D|---------------------------------|

A|---------------------------------|

F|---------------------------------|

C|---------------------------------|

G|-0-0--0-0---------0--0-0---------|

C|-0-0--0-0--2b3r2--0--0-0--2b3r2--|

x x x x x x x

CLEAN

D|-----------------------------------------------------------------|

A|-----------------------------------------------------------------|

F|--------2--2--2---------7--7--7----------2--2--2--------5--5--5--|

C|--------0--0--0---------5--5--5----------0--0--0--------3--3--3--|

G|---0----------------3----------------0--------------3------------|

C|-0---0----------1/3---3------------0---0--------1/3---3----------|

D|------------------------|

A|------------------------|

F|------------------------|

C|-8---------7---------0--| palm mutes are played by other guitar

G|-8--(0-0)--7--(0-0)--0--|

C|-8--(0-0)--7--(0-0)--0--|

x x x x

D|-----------|

A|-----------|

F|-----------|

C|-----------|

G|-0-0-------|

C|-0-0-1b2b1-|

x x

D|-------|

A|-------|

F|-3--2--|

C|-3--2--|

G|-1--0--|

C|-------|

CLEAN similar to the first one

D|--------------------------3--3--3-------------------------------------------|

A|--------3--3--3-----------6--6--6---------6--6--6---------------------------|

F|--------2--2--2-----------5--5--5---------5--5--5-----------------5--7-7-5--|

C|--------0--0--0-----5---------------------3--3--3-------------5---5--5-5-5--|

G|---0--------------3---3----------------3-----------8--7--5--3---3-----------|

C|-0---0-------------------------------3---3---------8--7--5------------------|

D|-------------------------3--3--3----------------------------------|

A|--------3--3--3----------6--6--6---------6--6--6---------8--8--8--|

F|--------2--2--2----------5--5--5---------5--5--5---------7--7--7--|

C|--------0--0--0-----5--------------------3--3--3---------5--5--5--|

G|---0--------------3---3--------------3----------------5-----------|

C|-0---0-----------------------------3---3-----------/5---5---------|

CLEAN

D|--------------------------3--3--3-------------------------------------------|

A|--------3--3--3-----------6--6--6---------6--6--6---------------------------|

F|--------2--2--2-----------5--5--5---------5--5--5-----------------5--7-7-5--|

C|--------0--0--0-----5---------------------3--3--3-------------5---5--5-5-5--|

G|---0--------------3---3----------------3-----------8--7--5--3---3-----------|

C|-0---0-------------------------------3---3---------8--7--5------------------|

D|--------------------------3--3--3--------------------------------------------------|

A|--------3--3--3-----------6--6--6---------6--6--6---------5--5--5---------6--6--6--|

F|--------2--2--2-----------5--5--5---------5--5--5---------4--4--4---------5--5--5--|

C|--------0--0--0-----5---------------------3--3--3---------2--2--2---------3--3--3--|

G|---0--------------3---3--------------3----------------2---------------3------------|

C|-0---0-----------------------------3---3------------2---2-----------3---3----------|

CLEAN

D|--------------------------3--3--3-------------------------------------------|

A|--------3--3--3-----------6--6--6---------6--6--6---------------------------|

F|--------2--2--2-----------5--5--5---------5--5--5-----------------5--7-7-5--|

C|--------0--0--0-----5---------------------3--3--3-------------5---5--5-5-5--|

G|---0--------------3---3----------------3-----------8--7--5--3---3-----------|

C|-0---0-------------------------------3---3---------8--7--5------------------|

D|--------------------------3--3--3--------------------------------------------------|

A|--------3--3--3-----------6--6--6---------6--6--6---------5--5--5---------6--6--6--|

F|--------2--2--2-----------5--5--5---------5--5--5---------4--4--4---------5--5--5--|

C|--------0--0--0-----5---------------------3--3--3---------2--2--2---------3--3--3--|

G|---0--------------3---3--------------3----------------2---------------3------------|

C|-0---0-----------------------------3---3------------2---2-----------3---3----------|

D|------------------|

A|---------8--8--8--|

F|---------7--7--7--|

C|---------5--5--5--|

G|----5-------------|

C|--5---5-----------|

D|---------------------------------------------------|

A|---------------------------------------------------|

F|--------------5----------------3-2-0------------5--|

C|----------0---5----------------0-0-0----5-5-5-5-5--|

G|-0-0-0-0--0---3---0-3--330--3--0-0-0--3-3-3-3-3-3--|

C|-0-0-0-0--0-------0-3--330--3--0-0-0---------------|

x x x

D|-----------------------------------------------------------------------------------------|

A|-----------------------------------------------------------------------------------------|

F|--------------5--------------------------------------------------------------------------|

C|--------------5----------------2------2------2----3------3------3----5------5------5-----|

G|-0-0-0-0--0---3---0-3--330--3--2------2------2----3------3------3----5------5------5-----|

C|-0-0-0-0--0-------0-3--330--3--2-2222-2-2222-2-22-3-3333-3-3333-3-33-5-5555-5-5555-5-55--|

x x x x x xxx xxxx xxxx xx xxxx xxxx xx xxxx xxxx xx

D|---------------------------------------------------|

A|---------------------------------------------------|

F|--------------5----------------3-2-0------------5--|

C|----------0---5----------------0-0-0----5-5-5-5-5--|

G|-0-0-0-0--0---3---0-3--330--3--0-0-0--3-3-3-3-3-3--|

C|-0-0-0-0--0-------0-3--330--3--0-0-0---------------|

x x x xxx x x x x x x

D|----------------------------------------------------------------|

A|----------------------------------------------------------------|

F|--------------5-------------------------------------------------|

C|--------------5----------------2------2------2----3---2-3-5-3-2-|

G|-0-0-0-0--0---3---0-3--330--3--2------2------2----3---2-3-5-3-2-|

C|-0-0-0-0--0-------0-3--330--3--2-2222-2-2222-2-22-3---2-3-5-3-2-|

x x x xxx xxxx xxxx xx

One guitar plays low notes...other guitar plays high notes.

D|---------------------------------|

A|-----------9---------------------|

F|-----------11b13-----------------|

C|---------------------------------|

G|-0-0--0-0---3-2---0-0--0-0--3-2--|

C|-0-0--0-0---3-2---0-0--0-0--3-2--|

x x x x x x x x x x x x

D|----------------|

A|----------------|

F|----------------|

C|----------------|

G|-0-0--0-0--3-2--|

C|-0-0--0-0--3-2--|

x x x x

D|--------------|

A|--------------|

F|--------------|

C|--------------|

G|------0--0-0--|

C|-3p0--0--0-0--|

------------------------------|

------------------------------|

------------------------------|

------------------------------|

---8---7---0-----8---7---0-0--|

-0-8-0-7-0-0---0-8-0-7-0-0-0--|

x x x x x x x x x x x

-------------------------------------------------|

-------------------------------------------------|

-------------------------------------------------|

------1^b2r1-----1^b2r1------1^b2r1------1^b2r1--|

-------------------------------------------------|

-0000--------0000-------0000--------0000---------|

xxxx xxxx xxxx xxxx

--------------------------------------------------------------------------|

--------------------------------------------------------------------------|

--------------------------------------------------------------------------|

------1^b2r1-1^b2r1------1^b2r1-1^b2r1-------1^b2r1-1^b2r1-1^b2r1-1^b2r1--|

--------------------------------------------------------------------------|

-0000---------------0000---------------0000-------------------------------|

xxxx xxxx xxxx

Somethin like that!

that's all

Get this song at:  amazon.com

Share your thoughts

0 Comments found