Metallica

Metallica - Unforgiven 2 guitar tab

-------------------------------------------------------------

Unforgiven 2 (verse lick, correct) - Metallica

-------------------------------------------------------------

By:LeeWatts (K!llaH)

Am

e|-------0-----------------3--3----------------------------|

B|--------1------------3/5----5p0------5\3-0----1/3\1--1---|

G|------2------------0--------------5--------0--2/4\2--2---|

D|----2-------------2--------------------------------------|

A|-0--------0--2--3----------------------------------------|

E|---------------------------------------------------------|

"Lay beside me......."

e|---------------------------------------------------0-----|

B|-------3-------------------------------------------1-----|

G|-----2---3----------0-------------0----------0-----2-----|

D|---0------------------3---------0--------------3---2-----|

A|-----------------3------------2-----------3--------0-----|

"But there's no sun shining through..."

Get this song at:  amazon.com

Share your thoughts

0 Comments found