Metallica

Metallica - The Wait guitar tab

From alt.guitar.tab Wed Nov 24 10:32:51 1993

Xref: news.tcd.ie alt.guitar.tab:14906 rec.music.makers.guitar.tablature:9128

Newsgroups: alt.guitar.tab,rec.music.makers.guitar.tablature

Path: news.tcd.ie!ieunet!EU.net!uunet!mnemosyne.cs.du.edu!nyx10!spordon

Message-ID:

X-Disclaimer: Nyx is a public access Unix system run by the University

of Denver for the Denver community. The University has neither

control over nor responsibility for the opinions of users.

Sender: usenet@mnemosyne.cs.du.edu (netnews admin account)

Organization: Nyx, Public Access Unix at U. of Denver Math/CS dept.

Lines: 126

Key: | > >>

o'. = dotted half / = quarter / = eighth / = 16th

Intro:

| | > >> > >> > >> > >> >> >> >> >>

o'. / o'. / / / / / / / / / / / / /

-----------|----------|------------------------------------------------------|

-----------|----------|------------------------------------------------------|

-----------|----------|*--------------------------------------------------0-*|

---------3-|-------3--|*-2-----x---2-----x---2-----x---2-----x---------3----*|

-----------|----------|--2-----x---2-----x---2-----x---2-----x------3--------|

p0------|--0-------|--0-----x---2-----x---2-----x---2-----x---1-----------|

^\\ P.M. ^^^^^^^^^^

\\

Main:

>> >> >> >> > >> > >> > >> > >> >> >> >> >> >> >> >> >

/ / / / / / / / / / / / / / / / / / / /

------|--------------------------------------------------|------------------

------|--------------------------------------------------|------------------

------|*----------------------------------------------0--|------------------

---2--|*-2--x-----2----x--2----x--2----x--2--------3-----|--x--2--x-----2---

---2--|--2--x-----2----x--2----x--2----x--2-----3--------|--x--2--x-----2---

---0--|--0--x--3--0----x--0----x--0----x--0--1-----------|--x--0--x--3--0---

P.M.^^^^^^^^^^^^

>> >> >> >> >> >> >> >> >> >> >>

/ / / / / / / / / / /

-------------------------------------|

-------------------------------------| repeat several times.

------------------------------------*|

---x--2--x--2--x--2--3--3--3--3--3--*|

---x--2--x--2--x--2--3--3--3--3--3---|

---x--0--x--0--x--0--1--1--1--1--1---|

P.M.^^^^^^^^^^^^^

|Chorus (Gtr. 1) -- part 1:

|---------------------------------------------------------------------|

|---------------------------------------------------------------------|

|---2----------------4----------------5----------------10--------\\----|

|---2----------------4----------------5----------------10--------\\----|

|---0----------------2----------------3----------------8---------\\----|

|---------------------------------------------------------------------|

| |

|Chorus (Gtr. 2) -- part 1: |

|---------------------------------------------------------------------|

|---------------------------------------------------------------------|

|---2----------------4----------------5-------------------------------|

|---2----------------4----------------5----------------3--------------|

|---0----0--0-----0--2----2--2--0--2--3----3--3--2--0--3--------------|

|--------------3---------------------------------------1--------------|

P.M.^^^^^^^^^^ P.M.^^^^^^^^^^ P.M.^^^^^^^^^^

|Gtr 1 -- part 2:

|---------------------------------------------------------------------|

|---------------------------------------------------------------------|

|---2---------------4---------------5---------------------------------|

|---2---------------4---------------5-----------------3---------------|

|---0---------------2---------------3-----------------3---------------|

|-----------------------------------------------------1---------------|

|

|Gtr. 2:

|Both Gtrs -- part 3:

|---------------------------------------------------------------------|

|---------------------------------------------------------------------|

|---2---------------4---------------5------------------10------\\------|

|---2---------------4---------------5------------------10------\\------|

|---0---------------2---------------3------------------8-------\\------|

|---------------------------------------------------------------------|

Pre-solo:

|--------------------------------------------------------------------------|

|--------------------------------------------------------------------------|

|*---10-\\--9----------------------10-\\--9------14-\\-13--------10-\\--9------|

|*-----------------10-\\--9-------------------------------------------------|

|----8--\\--7----------------------8--\\--7------12-\\-11--------8--\\--7------|

|------------------8--\\--7-------------------------------------------------|

_____________________________________ ________________________________

1. \\ / 2. \\

-----------------------------------------|-----------------------------------|

-----------------------------------------|-----------------------------------|

---10-\\--9-------14-\\-13-------17-\\-16--*|--14-\\-13-----17-\\-16-----22-\\-21--|

----------------------------------------*|-----------------------------------|

---8--\\--7-------12-\\-11-------15-\\-14---|--12-\\-11-----15-\\-14-----20-\\-19--|

-----------------------------------------|-----------------------------------|

Solo:

1.25 1.25

Get this song at:  amazon.com

Share your thoughts

0 Comments found