Metallica

Metallica - Sad But True (begining) guitar tab

------------------------------------ |---------------------------------------

------------------------------------ |---------------------------------------

-2----------------------2--2--2-----|---------------------------------------

-2----------------------2--2--2-----|---------------------------------------

-0----------------------0--0--0-----|---------------------------------------

------------------------------------|---------------------------------------

-----------------------------------|-----------------------------------------

-----------------------------------|-----------------------------------------

-----------------------------------|-----------------------------------------

2----------------------------------|-----------------------------------------

2------------------/7--6--5--------|-3-5-3-5-3-5-353535353535--------------

0----------------------------------|-------------------------------x\--------

metallica rules.

Get this song at:  amazon.com

Share your thoughts

0 Comments found