Metallica

Metallica - Reload Album guitar tab

RELOAD

1.Fuel

2.The Memory Remains

3.Devil's Dance

4.The Unforgiven 2

5.Better Than You

6.Slither

7.Carpe Diem Baby

8.Bad Seed

9.Where The Wild Things Are

10.Prince Charming

11.Low Man's Lyric

12.Attitude

13.Fixxxer

1.Fuel

Gimme fuel

gimme fire

gimme that wich I desire

Ab-2---2-2---2-2-2---2-2---2-2-2---2-2---2-2-2---2-2---2-2-2---2-2---2-2-|--------|

Eb-3p0-0-3p0-0-0-3p0-0-3p0-0-0-3p0-0-3p0-0-0-3p0-0-3p0-0-0-3p0-0-3p0-0-0-|5-5-5-3-|2x

Db-----7-7-7-5----|-----|

Ab-5h7----------7-|-5h7-|

4x

Ab-2---2-2---2-2-2---2-2---2-2-|

Eb-3p0-0-3p0-0-0-3p0-0-3p0-0-0-|

gb--------|

Db--------|

Ab-2---5--|

Eb-0---3--|

gb-------14-14-14-12----------14-14-14-12----|

Db-12h14-14-14-14-12-14-12h14-14-14-14-12-14-|

Ab-12h14-------------14-12h14-------------14-|

Db-----4---3---2---|-----7-7-7-5----|-----|

Ab-2---2---1---0---|-5h7----------7-|-5h7-|

Eb-0---------------|----------------|-----|

4x

Ab-2---2-2---2-2-2---2-2---2-2-|

Eb-3p0-0-3p0-0-0-3p0-0-3p0-0-0-|

gb--------|

Db--------|

Ab-2---5--|

Eb-0---3--|

gb-------14-14-14-12----------14-14-14-12----|

Db-12h14-14-14-14-12-14-12h14-14-14-14-12-14-|

Ab-12h14-------------14-12h14-------------14-|

Db-----4---3---2---|-----7-7-7-5----|-----|

Ab-2---2---1---0---|-5h7----------7-|-5h7-|

Eb-0---------------|----------------|-----|

4x

Ab-2---2-2---2-2-2---2-2---2-2-|

Eb-3p0-0-3p0-0-0-3p0-0-3p0-0-0-|

Coro:

Db-----------------------------|

Ab-7p5---7---7p5---7---7p5---7-|

Eb-----7---------7---------7---|

6x

Ab-2---2-2---2-2-2---2-2---2-2-|

Eb-3p0-0-3p0-0-0-3p0-0-3p0-0-0-|

So gimme fuel

gimme fire

gimme that wich I desire

Ab-----------------------------2---2-2---2-2-2---2-2---2-2-2---2-2---2-2-|--------|

Eb-3p0-0-3p0-0-0-3p0-0-3p0-0-0-3p0-0-3p0-0-0-3p0-0-3p0-0-0-3p0-0-3p0-0-0-|5-5-5-3-|

Ab-2---2-2---2-2-2---2-2---2-2-2---2-2---2-2-2---2-2---2-2-2---2-2---2-2-|--------|

Eb-3p0-0-3p0-0-0-3p0-0-3p0-0-0-3p0-0-3p0-0-0-3p0-0-3p0-0-0-3p0-0-3p0-0-0-|5-5-5-3-|

Db-----7-7-7-5----|-----|

Ab-5h7----------7-|-5h7-|

4x

Ab-2---2-2---2-2-2---2-2---2-2-|

Eb-3p0-0-3p0-0-0-3p0-0-3p0-0-0-|

gb--------|

Db--------|

Ab-2---5--|

Eb-0---3--|

gb-------14-14-14-12----------14-14-14-12----|

Db-12h14-14-14-14-12-14-12h14-14-14-14-12-14-|

Ab-12h14-------------14-12h14-------------14-|

Db-----4---3---2---|-----7-7-7-5----|-----|

Ab-2---2---1---0---|-5h7----------7-|-5h7-|

Eb-0---------------|----------------|-----|

4x

Ab-2---2-2---2-2-2---2-2---2-2-|

Eb-3p0-0-3p0-0-0-3p0-0-3p0-0-0-|

gb--------|

Db--------|

Ab-2---5--|

Eb-0---3--|

gb-------14-14-14-12----------14-14-14-12----|

Db-12h14-14-14-14-12-14-12h14-14-14-14-12-14-|

Ab-12h14-------------14-12h14-------------14-|

Db-----4---3---2---|-----7-7-7-5----|-----|

Ab-2---2---1---0---|-5h7----------7-|-5h7-|

Eb-0---------------|----------------|-----|

4x

Ab-2---2-2---2-2-2---2-2---2-2-|

Eb-3p0-0-3p0-0-0-3p0-0-3p0-0-0-|

Coro:

Db-----------------------------|

Ab-7p5---7---7p5---7---7p5---7-|

Eb-----7---------7---------7---|

6x

Ab-2---2-2---2-2-2---2-2---2-2-|

Eb-3p0-0-3p0-0-0-3p0-0-3p0-0-0-|

So gimme fuel

gimme fire

gimme that wich I desire

Db-7-7-7-5---------7-7-7-5-------|

Ab-7-7-7-5-2-2-2-2-7-7-7-5-2-2---|

Eb---------0-0-0-0---------0-0-3~|4x

p.m. . . . . . .

gb-14-14-14-12-------12-----14-14-14-12-------12~-|

Db-14-14-14-12-12h14----14~-14-14-14-12-12h14-----|4x

Solo:

gb-------14-14-14-12-----------14-14-14-12----------14-14-14-12---------|

Db-12h14-------------14-12h14-------------14-12h14-------------14-12h14-|

gb-14^-12-14^-12-14^-|

Db-------------------|

eb-12-----12-----15^-15-14-15-14----14-------------------------------------------|

bb----15^----15^-----------------15----15----------------------------15p14-------|

gb----------------------------------------14-------------------------------16/18-|

Db-------------------------------------------14-------12----12-14/16-------------|

Ab----------------------------------------------12-14----14----------------------|

eb-------------------15-17^-17-15----|

bb-------------15-17--------------17-|

gb-------14-16-----------------------|

Db-14-17-----------------------------|

eb---------------------------------------------------------------12-16--16-16-16-|

bb-12/14-12--12/14-12---------------------12/14-12--12/14-12-/14-12-17--17-17-17-|

gb-12/14-12--12/14-12---------------------12/14-12--12/14-12-/14-----------------|

Db---------------------7^7^7^7^p5------------------------------------------------|

Ab--------------------------------7p5h7------------------------------------------|

gb-9----------9----------|

Db---12-9-12^---12-9-----|

Ab-------------------12^-|4x

bb----------------------------------------|-12/17~-|

gb----11-12----11-12----11-12/14-12-11-12-|--------|

Db-14-------14-------14-------------------|--------|

4x

Ab-2---2-2---2-2-2---2-2---2-2-2---2-2---2-2-2---2-2---2-2-2---2-2---2-2-|--------|

Eb-3p0-0-3p0-0-0-3p0-0-3p0-0-0-3p0-0-3p0-0-0-3p0-0-3p0-0-0-3p0-0-3p0-0-0-|5-5-5-3-|

Db-----7-7-7-5----|-----|

Ab-5h7----------7-|-5h7-|

4x

2.The Memory Remains

eb------------------------------------------------------------------------------------

bb------------------------------------------------------------------------------------

gb--7-9-------9--9--7-9-------9--9--9-9-------9--9-----10-----------------------------

db--7-9-------9--9--7-9-------9--9--9-9-------9--9-----10-----------------------------

ab--5-7-------7--7--5-7-------7--7--5-7-------7--7------8-----------------------------

eb-------0-0-------------0-0-------------0-0--------0---------------------------------

PM --- --- --- -

Riff A

eb-------------------------------------------------------------------------------------

bb-------------------------------------------------------------------------------------

gb-------------------------------------------------------------------------------------

db------------------------5-7-7bfp5----------------------5-7-7fbp5---------------------

ab-------5h7~~--7-5h7-7~~-----------7~~-----5h7~~--7-5h7-----------7~~-----------------

eb--0--0---------------------------------0---------------------------------------------

End Riff A Rhy.fill 1A Harm

eb-------------------------------------------------------------------------------------

bb-------------------------------------------------------------------------------------

gb-------------------------------------------------------------------------------------

db------------------5-7-7bfp5------5-----5---2-----------------------------------------

ab----5h7~~-7-5h7-7-------------------2------2-----------------------------------------

eb--0---------------------------3------------0---3-3-3-3-3-3-3/12----------------------

Verse

eb-------------------------------------------------------------------------------------

bb-------------------------------------------------------------------------------------

gb-------------------------------------------------------------------------------------

db-----------------------5-7-7bfp5---------------------7fb----------------5-7-7bfp5----

ab------5h7~~--7-5h7-7~~-----------7~~-----5h7~~-7-5h7-------5h7~~--7-5h7--------------

eb--0-0---------------------------------0------------------0---------------------------

eb-------------------------------------------------------------------------------------

bb-------------------------------------------------------------------------------------

gb-------------------------------------------------------------------------------------

db-----5-----5---------------------5-7-7bfp5------7fb----------------------------------

ab--------2---------5h7~~--7-5h7~~-----------7~~--------5h7~~-7-5h7-7~~----------------

eb--3-----------0-0-----------------------------------0--------------------------------

eb-------------------------------------------------------------------------------------

bb-------------------------------------------------------------------------------------

gb-------------------------------------------------------------------------------------

db--------5-------------------5-7-7bfp5------5-----5----2------------------------------

ab------5-----5h7~~-7-5h7-7~~-----------7-------2-------2------------------------------

eb--5h7-----0------------------------------3------------0------------------------------

Chorus rhy.fig1 end fig 1 fill2 end

eb-------------------------------------------------------------------------------------

bb-------------------------------------------------------------------------------------

gb--7-9------9--9-9--7-9------9--9--7-9------9--9------------7-9------9--7--7-9--------

db--7-9------9--9-9--7-9------9--9--7-9------9--9--7-5--7-5--7-9------9--7--7-9--------

ab--5-7------7--7-7--5-7------7--7--5-7------7--7--5-5--5-5--5-7------7--5--5-7--------

eb-------0-0--------------0-0------------0-0----------------------0-0------------0-0---

PM --- --- --- --- ---

1.Time end chorus W/riff A

eb-------------------------------------------------------------------------------------

bb--------------------------------------------------12----12-14bhr-12----12-14-14bhr---

gb--9-7-7-9-------9--7---10----14fbr-12-------------12----12-14bhr-12----12-14-14bhr---

db--9-7-7-9-------9--7---10-------------14~~-12h14-----14-------------14---------------

ab--7-5-5-7-------7--5----8------------------------------------------------------------

eb-----------0-0-----------------------------------------------------------------------

PM ---

eb------------------------------------------12------12---------------------------------

bb--12----12-14bh-14bhr-12----12---------12----15hb----15-12---------------------------

gb--12----12-14bh-14bhr-12----12----14fb---------------------14fbp12-------------------

db-----14------------------14----14----------------------------------------------------

ab-------------------------------------------------------------------------------------

eb-------------------------------------------------------------------------------------

W/rhy.fill 1A

eb----------------------------------15-----------------------------------------------

bb---------12b--x-12--12-12--12-12--15-----------------------------------------------

gb---------12b--x-12--12-12--12-12-----------------------------------------------------

db--14--14-----------------------------------------------------------------------------

ab-------------------------------------------------------------------------------------

eb-------------------------------------------------------------------------------------

2.Time after chorus -Rhy.fig 2 end rhy.fig2

eb-------------------------------------------------------------------------------------

bb-----------------------------.-------------------------------------------------------

gb-------10~~------------12fbr-.----------------0---------0----------------------------

db----10------10------12-------.------2-------4---------0----------7---4---------------

ab--8-------------/10----------.----2---2h3-2-----3p2-------2h3-/5---2-----------------

eb--------------------------------0-------------------3--------------------------------

PM - - -

Riff B

eb--------12----------14-15-------------15-----------17----14--------------------------

bb-----12----12h13-12-------13p12----15----12h13-/15----12-----------------------------

gb--------------------------------12---------------------------------------------------

db--14---------------------------------------------------------------------------------

ab-------------------------------------------------------------------------------------

eb-------------------------------------------------------------------------------------

Played with rhy.fig 2 3 times and together with riff B 4 times during "na na na na"

eb-------------------------------------------------------------------------------------

bb-----7h8-7~~-8-7------/10-10-8p7--------------7h8-7~~-8-7-8~~-(8)-/10-10-10fbr-8~~--

gb--/9-------------7~~-------------9--9~~-9/-9----------------------------------------

db-------------------------------------------------------------------------------------

ab-------------------------------------------------------------------------------------

eb-------------------------------------------------------------------------------------

eb-------------------------------------------------------------------------------------

bb--8~~-(8)----7h8-7~~-8-7----------/10-10-8p7-------------7h8-7~~-8-7-8~~-/10-10-----

gb-----------/9-------------7~~-(7)-/7--7--5p4-9-9~~-9-/9-----------------/7--7------

db-----------/5-7/9-7~~-9-7-5~~-(5)------------5-5~~-5-/5-7/9-7~~-9-7-9~~------------

ab-------------------------------------------------------------------------------------

eb-------------------------------------------------------------------------------------

end The part where it goes "drift away fade away little...."with rhy.fig1

eb-------------------------------------------------------------------------------------

bb--10fbr-8~~--.------10-------10-------------------------14hbp12-14hbp12--------------

gb--7fbr-------.-12fb-----12fb----14fbp-12----12-------12-14hbp12-14hbp12--------------

db--------9~~--.---------------------------14----14~~~~-------------------12-----------

ab-------------.-------------------------------------------------------------14-12-----

eb-------------------------------------------------------------------------------------

eb-------------------------------------------------------------------------------------

bb--14hbr-12-14hbr-12-------12~~-----17-(17)----15---------------------------14hbr-12--

gb--14hbr-12-14hbr-12-14fbr-12~~-/16---------16----12-----------------12-14-14nbr-12--

db-----------------------------------------------------14~-14~14~-14~~-----------------

ab-------------------------------------------------------------------------------------

eb-------------------------------------------------------------------------------------

eb---------------------------------------------------12--------------------------------

bb-----12-14-14p12-------------------------------------------------12------------------

gb--14-------------14-12h14p12---------------12-14fb---------------12-12----12-14fb----

db-----------------------------14-12-14-14~~------------12-14-14~~-------14------------

ab-------------------------------------------------------------------------------------

eb-------------------------------------------------------------------------------------

end on "memory remains" part "ash to ash, dust to dust...."

eb-------------------------------------------------------------------------------------

bb--15-12------------------.-----------------------------------------------------------

gb--------14-12-----------.-----------------------------------------------------------

db-------------------------.-5-----------------------5-5-5-5---------------------------

ab-------------------------.-5-5-5-5-5-5-5-5-5-5-5-5-5-5-5-5-5-5-5-5-5-5-5-------------

eb---------------------------3-3-3-3-3-3-3-3-3-3-3-3-3-3-3-3-3-3-3-3-3-3-3-4-4-4-5-5-5-

PM --------------------- -------------harmed

Last solo W/wah wah

eb-------------------------------------------------------------------------------------

bb------------------------.------------------------------------12-14-14hbp12-14fb------

gb------------------------.-12-12-12-12-12-12-12-12--12~~------12-14-14hbp12-14fb------

db------------------------.-------------------------------14~~-------------------------

ab------------------------.------------------------------------------------------------

eb--7-7-7-7-7-12-12-12-12--------------------------------------------------------------

harmed PM -------

eb--------------------------------------------------------------------12---------------

bb------------------------14hbr-12----12-14-14hbr-12----12---------12----15fb----------

gb--2-2fb-2fb-0-------0---14hbr-12----12-14-14hbr-12----12----14fb---------------------

db--------------2-2~~---0----------14----------------14----14--------------------------

ab-------------------------------------------------------------------------------------

eb-------------------------------------------------------------------------------------

eb--12---------------13--15-(15)---

bb-----15-12---------13--15-(15)---

gb-----------14fbp12-----------------

db-----------------------------------

ab-----------------------------------

eb-----------------------------------

3.Devil's Dance

Intro

E|------------------------------------|

B|------------------------------------|

G|------------------------------------| REPEATS

D|------------------------------------| THROUGHOUT

A|------------------------------------| INTRO

D|--6~--0---0---0-3-0---0-5-3-0-3-5---|

E|-----------|--------------|----------|---------------|

B|-----------|--------------|----------|---------------|

G|-----------|--------------|----------|---------------| PLAY

D|-----------|--------------|----------|---------------| 1X

A|--8-8------|--8-8-8-8-8---|--8-8-----|--0-0-0-0------|

D|--8-8------|--8-8-8-8-8---|--8-8-----|--0-0-0-0------|

x x x x x x x x m m m m

E|---------------------------------|

B|---------------------------------|

G|---------------------------------| PLAY

D|---------------------------------| 8X

A|--0-0-0-0---0-0---0-0---0-0--0---|

D|--0-0-0-0---0-0---0-0---0-0--0---|

m m m m m m m m m m m

E|-----------------------------------------------------|

B|-----------------------------------------------------|

G|-----------------------------------------------------|

D|-----------------------------------------------------|

A|--0--------------------------------------------------|

D|--0--------------------------------------------------|

^ Let Ring out about 16 beats....

E|-------------|------------|-----------|--------------|

B|-------------|------------|-----------|--------------|

G|-------------|------------|-----------|--------------|

D|-------------|------------|-----------|--------------|

A|-/5----------|-/5---------|-/5--------|-/5-----------|

D|-----6~------|-----5~-----|-----6~----|-----5~-------|

Main Riff: with swing feel.

E|------------------------|---------------------------|

B|------------------------|---------------------------|

G|------------------------|---------------------------| PLAY

D|------------------------|---------------------------| 2X

A|--5-----------5---------|--5------------5-----------|

D|------6~----------5~----|------6~----------5--3p0---|

E|-------|

B|-------|

G|-------| PLAY

D|-------| 1X

A|-------|

D|--3p0--|

Verse:

E|-------------------------------|

B|-------------------------------|

G|-------------------------------| PLAY

D|-------------------------------| 3X

A|--0-0-0-0---0-0-----0---0---0--|

D|--0-0-0-0---0-3-----0---0---0--|

m m m m m m m m

E|-------------------------------|

B|-------------------------------|

G|-------------------------------| PLAY

D|-------------------------------| 1X

A|--0-0-0-0---0-0----------------|

D|--0-0-0-0---0-3-----5b6r5--3---|

m m m m m

E|-------------------------------|--------------------------------|

B|-------------------------------|--------------------------------|

G|-------------------------------|--------------------------------| PLAY

D|-------------------------------|--------------------------------| 1X

A|--3-3-3-3---3-3---3-3---3-3--3-|--3-3-3-3---3-3---3-3-----------|

D|--3-3-3-3---3-3---3-3---3-3--3-|--3-3-3-3---3-3---3-3-5b6r5--3--|

m m m m m m m m m m m m m m m m m m

E|-------------------------------|

B|-------------------------------|

G|-------------------------------| PLAY

D|-------------------------------| 1X

A|--0-0-0-0---0-0-----0---0---0--|

D|--0-0-0-0---0-3-----0---0---0--|

m m m m m m m m

E|-------------------------------|

B|-------------------------------|

G|-------------------------------| PLAY

D|-------------------------------| 1X

A|--0-0-0-0---0-0----------------|

D|--0-0-0-0---0-3-----5b6r5--3---|

m m m m m

E|-------------------------------|--------------------------|

B|-------------------------------|--------------------------|

G|-------------------------------|--------------------------| PLAY

D|-------------------------------|--------------------------| 1X

A|--3-3-3-3---3-3---3-3---3-3--3-|--2-2-2-2---2-2---2-2-----|

E|--3-3-3-3---3-3---3-3---3-3--3-|--2-2-2-2---2-2---2-2-----|

m m m m m m m m m m m m m m m m m

Bridge:

E|---------------------------|----------------------------|

B|---------------------------|----------------------------|

G|---------------------------|----------------------------| PLAY

D|---------------------------|----------------------------| 1X

A|--5-----------5------------|---5-----------5------------|

D|------6~----------5~-------|-------6~----------5~--3p0--|

E|-------|

B|-------|

G|-------| PLAY

D|-------| 1X

A|-------|

D|--3p0--|

Chorus:

E|---------------------------------|---------------------------|

B|---------------------------------|---------------------------|

G|---------------------------------|---------------------------| PLAY

D|---------------------------------|---------------------------| 3x

A|--6-------6-------6-------6---3--|--0-----3-----3-----0--3---|

D|--6---6-6-6---6-6-6---6-6-6---3--|--0--0--3-----3-----0--3---|

m m m m m m m

E|------------------|

B|------------------|

G|------------------| PLAY

D|------------------| 1X

A|--6---------------|

D|--6---------------|

Repeat Main Riff

Repeat Verse

Repeat Bridge

Repeat Chorus

Solo Rhythm:

E|---------------------------------|

B|---------------------------------|

G|---------------------------------| PLAY

D|---------------------------------| 4X

A|--0-0-0-0---0-0---0-0---0-0--0---|

D|--0-0-0-0---0-0---0-0---0-0--0---|

m m m m m m m m m m m

E|---------------------------------|

B|---------------------------------|

G|---------------------------------| PLAY

D|---------------------------------| 3X

A|--3-3-3-3---3-3---3-3---3-3--3---|

D|--3-3-3-3---3-3---3-3---3-3--3---|

m m m m m m m m m m m

E|---------------------------------|

B|---------------------------------|

G|---------------------------------| PLAY

D|---------------------------------| 1X

A|--3-3-3-3---3-3---3-3------------|

D|--3-3-3-3---3-3---3-3--5b6r5--3--|

m m m m m m m m

E|-------------------------------|

B|-------------------------------|

G|-------------------------------| PLAY

D|-------------------------------| 4X

A|--0-0-0-0---0-0-----0---0---0--|

D|--0-0-0-0---0-3-----0---0---0--|

m m m m m m m m

E|---------------------------------|---------------------------|

B|---------------------------------|---------------------------|

G|---------------------------------|---------------------------| PLAY

D|---------------------------------|---------------------------| 3x

A|--6-------6-------6-------6---3--|--0-----3-----3-----0--3---|

D|--6---6-6-6---6-6-6---6-6-6---3--|--0--0--3-----3-----0--3---|

m m m m m m m

E|------------------|

B|------------------|

G|------------------| PLAY

D|------------------| 1X

A|--6---------------|

D|--6---------------|

E|-------------|------------|-----------|--------------|

B|-------------|------------|-----------|--------------|

G|-------------|------------|-----------|--------------| PLAY

D|-------------|------------|-----------|--------------| 1X

A|-/5----------|-/5---------|-/5--------|-/5-----------|

D|-----6~------|-----5~-----|-----6~----|-----5~-------|

E|------------------------|---------------------------|

B|------------------------|---------------------------|

G|------------------------|---------------------------| PLAY

D|------------------------|---------------------------| 1X

A|--5-----------5---------|--5------------5-----------|

D|------6~----------5~----|------6~----------5--3p0---|

E|------------------------|---------------------------|

B|------------------------|---------------------------|

G|------------------------|---------------------------| PLAY

D|------------------------|---------------------------| 1X

A|--5-----------5---------|--5-------6---------6--6---|

D|------6~----------5~----|------6~--6---------6--6---|

4.The Unforgiven 2

1st guitar (Kirk)

|----------------------------------------------------------------|

|----------------------------------------------------------------|

|-2-2--4/5--75/7~-7/97--5/75--2-2--4/5--57/5--7/97~---------|

|-2-2--4/5--75/7~-7/97--5/75--2-2--4/5--57/5--7/97~--7/97--|

|-0-0--2/3--75/7~-5/95--3/53--0-0--2/3--75/7--5/75~--7/97--|

|-------------------------------------------------------- 5/75--|

2nd guitar (James)

|----------------------------------------------------------------|

|----------------------------------------------------------------|

|-2-2--4/5--75/---7/97--5/75--5-2--4/5--75/----7/97~--------|

|-2-2--4/5--75/5~-7/97--5/75--5-2--4/5--75/5~--7/97~--7/97-|

|-0-0--2/3--53/5~-5/75--3/53--3-0--2/3--53/5~--5/75~--7/97-|

|---------------3~-----------------------------3~----------5/75-|

|-------0----------------3-3------3--------------------|

|---------1------------1/3-3h5bp3---5bp3-0-0---1h3-1-0-|

|-----2-------------0------------------------0---------|

|---2-------------2------------------------------------|

|-0---------0-2-3--------------------------------------|

|------------------------------------------------------|

Verse 2:

|-------0-----------3---3--------3--------------------|

|---------1-------1---1---1--1/3---5bp3-0-0---1h3-1-0-|

|-----2-------------------------------------0---------|

|---2-------------------------------------------------|

|-0---------0-2-3-------------------------------------|

|-----------------------------------------------------|

Verse 3:

1st guitar.....

|-5---5---3---3---3---3----------|

|-5---5---3---3---3---3---5---5--|

|-5---5---5---5---5---5---5---5--|

|--7---7---5---5---5---5--6---6--|

|--------------------------7---7-|

|--------------------------------|

2nd guitar.....

|------------------------------|

|-6bp5~~~---------1h3~~~-------|

|------------------------------|

|------------------------------|

|------------------------------|

|------------------------------|

Verse 4:

|-1---1---1---1---3---3---1---1----0-|

|-3---3---3---3---3---3---3---3----0-|

|-2---2---2---2---2---2---2---2----2-|

|--0---0---0---0---0---0---0---0---2-|

|----------------------------------0-|

|------------------------------------|

Verse 5:

|-----1-----------------------------0-|

|-------3---------------------------0-|

|-------------2-3-------------------2-|

|---0-------0------------5-----3-5--2-|

|-0-------0----------2-3-----2------0-|

|-----------------3--------1----------|

Chorus:

|--------------------------------------------------------|

|-0h1--1--1--1--1p0--0--0--0--1h3--3--3--3--3p1--1--1--1-|

|-0----0--0--0--0----0--0--0--2----2--2--2--2----2--2--2-|

|--------------------------------------------------------|

|--------------------------------------------------------|

|--------------------------------------------------------|

|-----------------------------------------------------------|

|-0h1--1--1--1--1p0--0--0--0--1h3--3--3--3--3--1--0--1--0---|

|-0----0--0--0--0----0--0--0--2----2--2--2----------------2-|

|-----------------------------------------------------------|

|-----------------------------------------------------------|

|-----------------------------------------------------------|

Chorus fill in:

|-------------------|

|-------------------|

|-2-4-4/5-5-5-5-4-0-|

|-------------------|

|-------------------|

|-------------------|

Solo:

|----------------------------------------------|

|-----------------------------13-15br-13----13-|

|-2-2-4-5-7b-5h7p5-4-5----/14------------14----|

|----------------------5-----------------------|

|----------------------------------------------|

|----------------------------------------------|

|------15-----15-----15------------------|

|-15b----15b----15b----15b-15br-13----13-|

|----------------------------------14----|

|----------------------------------------|

|----------------------------------------|

|----------------------------------------|

|-15b--15b-15b-15b------17------------17--------|

|-------------------/17----17-20b-/17----17-20b-|

|-----------------------------------------------|

|-----------------------------------------------|

|-----------------------------------------------|

|-----------------------------------------------|

|-----17------------------------------------|

|-/17----17-20br-17----------19-17----19-17-|

|-------------------19-17----19-17----19-17-|

|-------------------------19-------19-------|

|-------------------------------------------|

|-------------------------------------------|

|---------------------------------|

|----19-17------------------19-17-|

|----19-17----17-19br-17----19-17-|

|-19-------19------------19-------|

|---------------------------------|

|---------------------------------|

LAST:

|------------------------------------------------------|

|------------------------------------------------------|

|--2-2~--2-2-4-4~---2~--2-7-7~--2-2~--2-4~~------------|

|--2-2~--2-2-4-4~---2~--2-7-7~--2-2~--2-4~~--5~~--2~~--|

|--0-0~--0-0-2-2~---0~--0-5-5~--0-0~--0-2~~--5~~--2~~--|

|--------------------------------------------3~~-------|

5.Better Than You

1)

eb------------------------

Bb------------------------

Gb------------------------

Db------------------------

Ab--5-6-7-5--2--5-6-7-5--2

Eb--3-4-5-3--0--3-4-5-3--

02)

eb--------------------------------------------------------

Bb--------------------------------------------------------

Gb--------------------------------------------------------

Db--------------------------------------------------------

Ab--5-6-7-5------2-----2-----2--5-6-7-5------2-----2-----2

Eb--3-4-5-3--0-0-0-0-0-0-0-0-0--3-4-5-3--0-0-0-0-0-0-0-0-0

pm.. ... ... ... ... ...

3a)

eb--------------------------------------------

Bb--------------------------------------------

Gb--------------------------------------------

Db--------------------------------------------

Ab--5-6-7-5-5-5-7-7-7-5-5-5------2-----2-----2 x2

Eb--3-4-5-3-3-3-5-5-5-3-3-3--0-0-0-0-0-0-0-0-0

pm.. ... ...

3b)

eb-------------------------------------------------------

Bb-------------------------------------------------------

Gb-------------------------------------------------------

Db--------------------5-5-5-7-7-7-------------10-10-10-12

Ab--5-6-7-5-5-5-7-7-7-3-3-3-5-5-5-5-5-5-7-7-7-8--8--8--10

Eb--3-4-5-3-3-3-5-5-5-------------3-3-3-5-5-5------------

4)

eb------------------------------- ------------------------------

Bb------------------------------- ------------------------------

Gb---------------4p2------------- --------------6p4-------------

Db--4-4-4-4-4-4------4--4p2---2-3 tw -4/6-4/6-4/6------4--6p4---4-5

Ab--4-4-4-4-4-4-------------2-2-3 ic -4/6-4/6-4/6-------------4-4-5

Eb--0h2-0h2-0h2---------------0-1 e -2/4-2/4-2/4---------------2-3

6.Slither

Intro

Guitar I

"Don't go looking..." "Don't set..." "Haven't I seen you...."

|---------------------------------------------------------------------

|---------------------------------------------------------------------

|---4-3-2--x-x-x-x------------------7-6-5---------------4-3-2--2--2---

|---4-3-2--x-x-x-x--7-6-5--x-x-x-x--7-6-5---------------4-3-2--2--2---

|---2-1-0--x-x-x-x--7-6-5--x-x-x-x--5-4-3--3-0-3-0-3-0--2-1-0--0--0---

|-------------------5-4-3--x-x-x-x------------------------------------

|

|Guitar II

|---------------------------------------------------------------------

|---------------------------------------------------------------------

|---4-3-2---------------------------7-6-5---------------4-3-2--2--2---

|---4-3-2-----------7-6-5-----------7-6-5---------------4-3-2--2--2---

|---2-1-0-----------7-6-5-----------5-4-3---------------2-1-0--0--0---

|-------------------5-4-3---------------------------------------------

Guitar I

|----------------------------------------------------------------------

|----------------------------------------------------------------------

|----------------------------------------------------------------------

|---------5--7-----------5--7-----------5--7-----------5--8-----5------

|---7-/7-----------7-/7-----------7-/7-----------7-/7-----8-----5------

|---0--0--------0--0--0--------0--0--0--------0--0--0-----6--0--3--0---

| p.m. p.m. p.m. p.m. sim.

|

|Guitar II

|----------------------------------------------------------------------

|----------------------------------------------------------------------

|----------------------------------------------------------------------

|------------------------------2--------------------------9--8--7------

|------------------------------2--------------------------9--8--7------

|------------------------------0--------------------------7--6--5--0---

Guitar I

Riff A

|----------------------------------------------------------------------

|----------------------------------------------------------------------

|----------------------------------------------------------------------

|---------5--7-----------5--7-----------5--7-----------5--8-----5------

|---7-/7-----------7-/7-----------7-/7-----------7-/7-----8-----5------

|---0--0--------0--0--0--------0--0--0--------0--0--0-----6--0--3--0---

|

|Guitar II

|----------------------------------------------------------------------

|----------------------------------------------------------------------

|----------------------------------------------------------------------

|---------5--7-----------5--7-----------5--7-----------5--9--8--7------

|---7-/7-----------7-/7-----------7-/7-----------7-/7-----9--8--7------

|---0--0--------0--0--0--------0--0--0--------0--0--0-----7--6--5--0---

Guitar I

"Ohhh, watch the puppets dancin' ....."

Riff B

|---------------------------------------------------------------------------------------------

|---------------------------------------------------------------------------------------------

|---------------------------------------------------------------------------------------------

|---2---5-----7--8--5--8--2---5------7--8--5--8--2---5------7--8--5--8--2---5---8---5--4--2---

|---2---5-----7--8--5--8--2---5------7--8--5--8--2---5------7--8--5--8--2---5---8---5--4--2---

|---0---3--0--5--6--3--6--0---3---0--5--6--3--6--0---3---0--5--6--3--6--0---3-0-6---3--2--0---

|

|

|Guitar II

|---------------------------------------------------------------------------------------------

|---------------------------------------------------------------------------------------------

|---------------------------------------------------------------------------------------------

|---2---5-----------------2---5------------------2---5------------------2---5---8---5--4--2---

|---2---5-----------------2---5------------------2---5------------------2---5---8---5--4--2---

|---0---3--0--5--6--3--6--0---3---0--5--6--3--6--0---3---0--5--6--3--6--0---3-0-6---3--2--0---

Guitar I

"See you crawlin'......"

Riff C

|----------------------------------------------------------

|----------------------------------------------------------

|----------------------------------------------------------

|-----3--x-x------3--x--x------3--x-x------3--x--x---------

|-----3--x-x------3--x--x------3--x-x------3--x--x---------

|---0-1--x-x--x-0-1--x--x--x-0-1--x-x--x-0-1--x--x--0--0---

|

|Guitar II

|----------------------------------------------------------

|----------------------------------------------------------

|----------------------------------------------------------

|-----3-----------3------------3-----------3---------------

|-----3-----------3------------3-----------3---------------

|---0-1---------0-1----------0-1---------0-1--------0--0---

Guitar I

|--------------------------------------------------------------

|--------------------------------------------------------------

|--------------------------------------------------------------

|-----3--x-x------3--x--x------3--x-x------3--x--x-------------

|-----3--x-x------3--x--x------3--x-x------3--x--x-------------

|---0-1--x-x--x-0-1--x--x--x-0-1--x-x--x-0-1--x--x--0--0---0---

|

|Guitar II

|Tremolo picking.............................

|--------------------------------------------------------------

|---5-----------6------------8------------10-------------------

|--------------------------------------------------------------

|--------------------------------------------------------------

|--------------------------------------------------------------

|--------------------------------------------------------------

Guitar I

"Don't go looking for snakes you......"

Riff D

|-------------------------------------------------

|-------------------------------------------------

|---4-3-2-2-2-2-2-2-2-2-2-------------------------

|---4-3-2-2-2-2-2-2-2-2-2-7-6-5-5-5-5-5-5-5-5-5---

|---2-1-0-0-0-0-0-0-0-0-0-7-6-5-5-5-5-5-5-5-5-5---

|-------------------------5-4-3-3-3-3-3-3-3-3-3---

|

|Guitar II

|-------------------------------------------------

|-------------------------------------------------

|---4-3-2-2-2-2-2-2-2-2-2-------------------------

|---4-3-2-2-2-2-2-2-2-2-2-7-6-5-5-5-5-5-5-5-5-5---

|---2-1-0-0-0-0-0-0-0-0-0-7-6-5-5-5-5-5-5-5-5-5---

|-------------------------5-4-3-3-3-3-3-3-3-3-3---

Guitar I

"haven't i seen you.." "there ain't no..."

|-----------------------------------------------------

|-----------------------------------------------------

|---7-6-5-5-5-5-4-3-2-------2-------2--4-3-2--4-2-----

|---7-6-5-5-5-5-4-3-2-------2-------2--4-3-2--4-2-----

|---5-4-3-3-3-3-2-1-0--0-0--0--0-0--0--2-1-0--2-0-----

|-------------------------------------------------0---

|

|Guitar II

|-----------------------------------------------------

|-----------------------------------------------------

|---7-6-5-5-5-5-4-3-2-------2-------2--4-3-2--4-2-----

|---7-6-5-5-5-5-4-3-2-------2-------2--4-3-2--4-2-----

|---5-4-3-3-3-3-2-1-0--0-0--0--0-0--0--2-1-0--2-0-----

|-------------------------------------------------0---

Bridge

Guitar I

Riff E

|-----------------------------------------------------------------------------|

|-----------------------------------------------------------------------------|

|*---------------------------------------------------------------------------*|

|*--------5--7B--5---------------5--7B--5--------------5--7B--5--8-----5-----*|

|-----/7------------7--------/7------------7-------/7------------8-----5------|

|---0------------------0--0-------------------0--0---------------6--0--3--0---|

|

|Guitar II

|-----------------------------------------------------------------------------|

|-----------------------------------------------------------------------------|

|*---------------------------------------------------------------------------*|

|*--------5--7B--5---------------5--7B--5--------------5--7B--5--------------*|

|-----/7------------7--------/7------------7-------/7------------7------------|

|---0------------------0--0-------------------0--0------------------0--0--0---|

Solo:

Play this a whole bunch of times

|----------------------------|

|----------------------------|

|*--2--2--2--2--2--2--2--2--*|

|*--2--2--2--2--2--2--2--2--*|

|---0--0--0--0--0--0--0--0---|

|----------------------------|

then play riff Riff B a couple of times.

Outro Solo:

Guitar I

|----------------------------------------------------------

|----------------------------------------------------------

|----------------------------------------------------------

|---------5--7-----------5--7-----------5--7-----------5---

|---7-/7-----------7-/7-----------7-/7-----------7-/7------

|---0--0--------0--0--0--------0--0--0--------0--0--0------

Guitar I

Riff F

|-------------------------------------------------

|-------------------------------------------------

|---5-5-5-5-4-3-2-------2-------2--4-3-2--4-2-----

|---5-5-5-5-4-3-2-------2-------2--4-3-2--4-2-----

|---3-3-3-3-2-1-0--0-0--0--0-0--0--2-1-0--2-0-----

|---------------------------------------------0---

7.Carpe Diem Baby

INTRO (fade in)

eb|-----------------|-----------------|-----------------|-----------------|

Bb|-----------------|-----------------|-----------------|-----------------|

Gb|-----------------|-----------------|-----------------|-----------------|

Db|-5-5-----5-5-----|-5-5-----5-5-----|-5-5-----5-5-----|-5-5-----5-5-----|

Ab|-7-7-----7-7-----|-7-7-----7-7-----|-7-7-----7-7-----|-7-7-----7-7-----|

Eb|-----0-0-----0-0-|-----0-0-----0-0-|-----0-0-----0-0-|-----0-0-----0-0-| (2x)

PM.| PM.| PM.| PM.| PM.| PM.| PM.| PM.|

INTRO RIFF

1/4 1/4

eb|-----------------|-----------------|-----------------|-----------------|

Bb|---------12^-----|-----------------|---------12^-----|-----------------|

Gb|---------12^-----|-----------------|---------12^-----|-----------------|

Db|-----------------|-----0-----0---0-|-----------------|-----0-----0-----|

Ab|-----------------|-----------------|-----------------|-----------------|

Eb|-0---0-----------|-7-----5-----3---|-0---0-----------|-7-----5-----3-0-|

1/4 1/4

eb|-----------------|-----------------|-----------------|-----------------|

Bb|---------12^-----|-----------------|---------12^-----|-----------------|

Gb|---------12^-----|-----------------|---------12^-----|-----------------|

Db|-----------------|-----0-----0---0-|-----------------|-----0-----0-----|

Ab|-----------------|-----------------|-----------------|-----------------|

Eb|-3p0-0-----------|-7-----5-----3---|-0---0-----------|-7-----5-----3-0-|

eb|-----------------|-----------------|-----------------|-----------------|

Bb|-----------------|-----------------|----12/13/12----|-----------------|

Gb|-----------------|-----------------|----12/13/12----|-----------------|

Db|-----------------|-----0-----0---0-|-----------------|-----0-----0-----|

Ab|---------2---2-2-|-----------------|-----------------|-----------------|

Eb|-3p0-0---0---0-0-|-7-----5-----3---|-0---------------|-7-----5-----3-0-|

eb|-----------------|-----------------|-----------------|

Bb|-----------------|-----------------|-----------------|

Gb|-----------------|-----------------|-----------------|

Db|-----------------|-----------------|-----------------|

Ab|---------2-------|---------2-------|---------2---2-2-|

Eb|-3p0-0---0-----0-|-3p0-0---0-----0-|-3p0-0---0---0-0-|

CHORUS

eb|-----------------|-----------------|-----------------|-----------------|

Bb|-----------------|-----------------|-----------------|-----------------|

Gb|-----------------|-----------------|-----------------|-----------------|

Db|-7/9---------7/9-|10/9-------------|-7-------7-------|-9-10--5---------|

Ab|-5/7---------5/7-|-8/7---------7/9-|-5-------5-------|-7-8---3---------|

Eb|-----0---0-------|-----0---0-------|-----------------|-----------------|

PM...| PM...|

INTERLUDE

eb|-----------------|-----------------|-----------------|-----------------|

Bb|-----------------|-----------------|-----------------|-----------------|

Gb|-----------------|-----------------|-----------------|-----------------|

Db|-4-------3-------|-----------------|-----------------|-----------------|

Ab|-2-------1-------|-5-------4-------|-------------2---|-2---2---2---2---|

Eb|-----------------|-3-------2-------|-0---0---0---0---|-0---0---0---0---|

PM.......|

REFRAIN

eb|-----------------|-----------------|-----------------|-----------------|

Bb|-----------------|-----------------|-----------------|-----------------|

Gb|-----------------|-----------------|-----------------|-----------------|

Db|-5-5-----5-5-----|-5-5-----5-5-----|-----------------|-----------------|

Ab|-7-7-----7-7-----|-7-7-----7-7-----|-3-------5-------|-7-------5-------|

Eb|-----0-0-----0-0-|-----0-0-----0-0-|-1-------3-------|-5-------3-------| (3x)

PM.| PM.| PM.| PM.|

eb|-----------------|-----------------|-3-------3-------|-----------------|

Bb|-----------------|-----------------|-3-------3---3^--|-----3-----------|

Gb|-----------------|-----------------|-0-------0-------|-----------------|

Db|-----------------|-----------------|-x-------x-------|-----------------|

Ab|-7-------7-------|-7---7-----------|-3-------3-------|-----------------|

Eb|-5-------5-------|-5---5-----------|-0-------0-------|-----------------|

9.Bad Seed

(intro)

----------------|-----------------|-------------------|-----------------|-----

-------0--------|-----------------|-------------------|-----------------|-----

-------0--------|-----------------|-------------------|-----------------|-----

-------0--------|-----------------|-------------------|-----------------|-----

---------/-14--|-5h7-5-----------|-5/7v--5---------5-|-5/7-5-----------|-----

---------/-14--|-------7-5-3-0-0-|---------7-5-3-0-3-|-------7-5-3-0-0-|-----

-------------------|----------------------------------------------------------

-------------------|----------------------------------------------------------

-------------------|----------------------------------------------------------

-------------5/7-5-|----------------------------------------------------------

-5/7v-5------5/7-5-|----------------------------------------------------------

--------7-5-3------|----------------------------------------------------------

(Main Riff)

--------------|--------------|------------------------------------------------

--------------|--------------|------------------------------------------------

--------------|--------------|------------------------------------------------

--------------|--------------|------------------------------------------------

-2-2--2--2--2-|-2------------|------------------------------------------------

-0-0--0--0--0-|-0-0-5b-0-3-5-|------------------------------------------------

("Bad") play a few times

(Fill)

-----------------|-------------|----------------------------------------------

-----------------|-------------|----------------------------------------------

-----------------|-------------|----------------------------------------------

-----------------|-------------|----------------------------------------------

-5-5--5--5--5----|-7-----------|----------------------------------------------

-3-3--3--3--3-/5-|---6v--6-5-0-|----------------------------------------------

(Verse)

-----------------|---------------|---------------|---------------|------------

-----------------|---------------|---------------|---------------|------------

-----------------|---------------|---------------|---------------|------------

---------5/7-5---|-------5/7-5---|-------5/7-5---|-------5-7b-5v-|------------

---2--2--5/7-5-2-|-2--2--5/7-5-2-|-2--2--5/7-5-2-|-2--/7---------|------------

-3-0--0--------0-|-0--0--------0-|-0--0--------0-|-0-------------|------------

During the verse change the last measure here a bit, ill leave that up to you.

(Spoken Part)

-----------------|------------------|-----------------|--------------------|--

-----------------|------------------|-----------------|--------------------|--

-----------------|----------------5-|-----------------|--------------5/7-5-|--

-5/7-5-----------|-5/7v-5---------5-|-5/7-5-----------|-5/7v-5-------5/7-5-|--

-------7-5-3-0-0-|--------7-5-3-0---|-------7-5-3-0-0-|--------7-5-3-------|--

-----------------|------------------|-----------------|--------------------|--

(Chorus)

I-------------------|------------------|---------------12b-|-----------------|-

I---------------12b-|--------------12-|---------------15b-|-------------15-|-

I---------------14b-|--------------14-|-------------------|-----------------|-

I-------------------|------------------|-------------------|-----------------|-

I-5-5---5---5-------|------------------|-5-5---5---5-------|-----------------|-

I-3-3---3---3-0-----|------------------|-3-3---3---3-0-----|-----------------|-

I p.m p.m

I

I-------------------|------------------|-------------------|-----------------|-

I-------------------|------------------|-------------------|-----------------|-

I-------------------|------------------|-------------------|-----------------|-

I-------------------|------------------|-------------------|-----------------|-

I-5-5---5---5-----2-|--2---------------|-5-5---5---5-----2-|--2--------------|-

I-3-3---3---3-0---0-|--0-0-5b--3--5----|-3-3---3---3-0---0-|--0-0-5b-5-0-3-5-|-

p.m p.m

I-------------------|------------------|---------------------------------------

I---------------15b-|--------------15-|---------------------------------------

I---------------14b-|--------------14-|---------------------------------------

I-------------------|------------------|---------------------------------------

I-5-5---5---5-------|------------------|---------------------------------------

I-3-3---3---3-0-----|------------------|---------------------------------------

I p.m

I

I-------------------|------------------|---------------------------------------

I-------------------|------------------|---------------------------------------

I-------------------|------------------|---------------------------------------

I-------------------|------------------|---------------------------------------

I-5-5---5---5-----7-|------------------|---------------------------------------

I-3-3---3---3-0---5-|------6v--6--5--0-|---------------------------------------

p.m

-------------------|------------------|------------------|--------------------

-------------------|--14b-------------|------------------|--------------------

-12b---------------|--14b-------12----|-12---------------|--------------------

------------14v----|---------------14-|------------14v---|--------------------

-------------------|------------------|------------------|--------------------

-------------------|------------------|------------------|--------------------

Kirk plays this over the 2nd chorus

(Solo)

-------------------|-------------------|-------------------|------------------

-------------------|----------------12-|--b---------------|------------------

-/19--------12v----|----------------12-|--b---------12-14-|------------------

-------------------|-14p12----12h14v---|------/12h14-------|------------------

-------------------|-------14----------|-------------------|------------------

-------------------|-------------------|-------------------|------------------

Hold this '12' note through to the next bar

12

-------------------|-------------------|-----------12--14b-|------------------

-------------------|-----15-15b--------|-------12b-12--14b-|------------------

-14b-v-------12-14-|-14b----14b--------|-12----12b---------|------------------

-------12h14-------|-------------------|----14-------------|------------------

-------------------|-------------------|-------------------|------------------

-------------------|-------------------|-------------------|------------------

-12----------12h15p12-|----15-15p12----17-17-15p12----12-|--------------------

-12-14-12-------------|-15----------15-------------15----|--------------------

----14-12-------------|----------------------------------|--------------------

----------14----------|----------------------------------|--------------------

----------------------|----------------------------------|--------------------

----------------------|----------------------------------|--------------------

--------12------------|-12b-12-----12-12-----12-15-12h14p12----12-12-15v-|----

-12-15b----15-12-15bv-|-15b----15b-------15b----------------15-12-12-----|----

----------------------|--------------------------------------------------|----

----------------------|--------------------------------------------------|----

----------------------|--------------------------------------------------|----

----------------------|--------------------------------------------------|----

-12h14p12----12-12---------x-----|-12-----------------------------------------

----------15-12-12-15v-----x-12b-|-12-----------------12-----------------12---

-----------------------------14b-|----14p12----12-14b----14p12----12-14b------

---------------------------------|----------14-----------------14-------------

---------------------------------|--------------------------------------------

---------------------------------|--------------------------------------------

-------|-------------------------------------------|--------------------------

-15-14-|-12----12h15p12----12-12-------------------|--------------------------

-------|----14----------14----12----12-14-12v------|--------------------------

-------|-------------------------14-----------14--|--------------------------

-------|-------------------------------------------|--------------------------

-------|-------------------------------------------|--------------------------

(Interlude)

------------------|---------------|------------------|---------------|--------

------------------|---------------|------------------|---------------|--------

-----5-7-7b-------|---5-7-7b-7-5v-|-----5-7-7b-------|---5-7-7b-7-5v-|--------

-7-7--------7v-7v-|-7-------------|-7-7--------7v-7v-|-7-------------|--------

------------------|---------------|------------------|---------------|--------

------------------|---------------|------------------|---------------|--------

------------------|---------------|------------------|----------------|-------

------------------|---------------|------------------|-----------8-8v-|-------

-----5-7-7b-------|---5-7-7b-7-5v-|-----5-7-7b-------|---5-7-7/9------|-------

-7-7--------7v-7v-|-7-------------|-7-7--------7v-7v-|-7--------------|-------

------------------|---------------|------------------|----------------|-------

------------------|---------------|------------------|----------------|-------

-------------------------|----------------------|-------------------------|---

-------------------------|----------------------|-------------------------|---

--------17-19-19b--------|----17-19-19b-19-17--|--------17-19-19b--------|---

-/19-19-----------19/19-|-19-------------------|-/19-19-----------19/19-|---

-------------------------|----------------------|-------------------------|---

-------------------------|----------------------|-------------------------|---

------------------------|----------------------------------|------------------

----------------20-20--|------20v-----20v-----20v-----20-|------------------

----17-19-19/21---------|-/21v-----21v-----21v-----21v-----|------------------

-19---------------------|----------------------------------|------------------

------------------------|----------------------------------|------------------

------------------------|----------------------------------|------------------

When Kirk plays this part, James plays the part below.

------------------------|----------------------------------|------------------

-----8--8-------8--8--|------8v------8v------8v------8--|------------------

-/9----------/9---------|-/9v------9v------9v------9v------|------------------

------------------------|----------------------------------|------------------

------------------------|----------------------------------|------------------

------------------------|----------------------------------|------------------

That's about it really, just play the main riff again for the outro.

9.Where The Wild Things Are

1) all but 2nd time

eb------------------------------------- ------- --------

Bb------------------------------------- ------- --------

Gb--4-4--4-----4----4-----3----3------0 ------- --------

Db--2-2----2----------2----------2----- ------- --------

Ab--3-3------3---3------3---3------3--- ------- -0-3-2-0

Eb------------------------------------- -0-3~~0 --------

clean

"So wake up sleepy one."

2a) Kirk 2b) James (right before verse)

Gb--------------- --------------

Db--9-9-9-9-----9 --------------

Ab--8-8-8-8-----7 -5-5-5-5-----2

Eb----------0-0-- -3-3-3-3-0-0-0

pm.. .............

3)

Gb-------------------41

Db--5-5-5-5-5-5-5-2--52

Ab--5-5-5-5-5-5-5-2-----

Eb--3-3-3-3-3-3-3p0-----

pm..........

verse

"Steal dreams and give to you."

4)

Gb-------------------- -----------4-4-----

Db--7-7--6-6---------- twice -7-7--6-6--2-2--5-5

Ab--5-5--4-4--8-8--5-5 then -5-5--4-4-------3-3

Eb------------6-6--3-3 -------------------

chorus

10.Prince Charming

1)

Gb---------------------------------5------------

Db---------2--------5----------5-5-5-------5----

Ab--2/152-2--0h5h7---7~~0h5h7-------7-5h7---7~~

Eb--2/152-0------------------------------------

intro

2a) James ^V^V^V

Gb------------------------------------------

Db-------

Get this song at:  amazon.com

Share your thoughts

0 Comments found