Metallica

Metallica - Purify Bass guitar tab

Song:Purify

Group: metallica

tunning: F-C-G-C

Bassist: Bob Rock

james start and the bass enter in the third time

|--------------------------------|

|--------------------------------|

|--------------------------------|

|--0-0-0-0-0-0-0-0-0-------------|

|--------------------------------|

|--------------------------------| X4 times

|--------------------------------|

|--0-0-3--3-3-0--3-3-0--3/5-5-0--|

|----------------------------------|

|----------------------------------| X4 times

|----------------------------------|

|--0--0----0--0----0--0----0--0----|

|--------------------| |----------------------|

|--------------------| X8 |----------------------| X4

|--------------------| |----------------------|

|--4-4-5-6-7--0------| |--4-4-5-6-7--0-0-0----|

|--------------------------|--------------------------|

|--------------------------|--------------------------|

|--------------------------|--------------------------|

|--7--7--7--7--7--7--7--7--|--6--6--6--6--6--6--6--6--|

|--------------------------|--------------------------|------------------------|

|--------------------------|--------------------------|------------------------|

|--------------------------|--------------------------|------------------------|

|--5--5--5--5--5--5--5--5--|--6--6--6--6--6--6--6--6--|--1-2-3------1-2-3------|

|------------------------|--------------------------|--------------------------|

|------------------------|--------------------------|--------------------------|

|------------------------|--------------------------|--------------------------|

|--1-2-3------1-2-3------|--7--7--7--7--7--7--7--7--|--6--6--6--6--6--6--6--6--|

|--------------------------|--------------------------|------------------------|

|--------------------------|--------------------------|------------------------|

|--------------------------|--------------------------|------------------------|

|--5--5--5--5--5--5--5--5--|--6--6--6--6--6--6--6--6--|--1-2-3------1-2-3------|

|------------------------|---------------------------|----------------------------|

|------------------------|---------------------------|----------------------------|

|------------------------|---------------------------|----------------------------|

|--1-2-3------1-2-3------|--1-2-3-3-3---1-2-3-3-3----|--1-2-3-3-3---1-2-3-3-3-----|

|-------------------------------|

|-------------------------------|

|-------------------------------|

|----3-3-3-3-3-3-3-3-3-3-3------|

james plays only (the bass is muted)

|--------------------------------|

|--------------------------------| X4

|--------------------------------|

|--0-0-3--3-3-0--3-3-0--3/5-5-0--|

|--------------------| |-----------------------|

|--------------------|X8 |-----------------------| X4

|--------------------| |-----------------------|

|--4-4-5-6-7--0------| |--4-4-5-6-7--0-0-0-----|

|--------------------------|--------------------------|

|--------------------------|--------------------------|

|--------------------------|--------------------------|

|--7--7--7--7--7--7--7--7--|--6--6--6--6--6--6--6--6--|

|--------------------------|--------------------------|------------------------|

|--------------------------|--------------------------|------------------------|

|--------------------------|--------------------------|------------------------|

|--5--5--5--5--5--5--5--5--|--6--6--6--6--6--6--6--6--|--1-2-3------1-2-3------|

|------------------------|--------------------------|--------------------------|

|------------------------|--------------------------|--------------------------|

|------------------------|--------------------------|--------------------------|

|--1-2-3------1-2-3------|--7--7--7--7--7--7--7--7--|--6--6--6--6--6--6--6--6--|

|--------------------------|--------------------------|------------------------|

|--------------------------|--------------------------|------------------------|

|--------------------------|--------------------------|------------------------|

|--5--5--5--5--5--5--5--5--|--6--6--6--6--6--6--6--6--|--1-2-3------1-2-3------|

|------------------------|---------------------------|----------------------------|

|------------------------|---------------------------|----------------------------|

|------------------------|---------------------------|----------------------------|

|--1-2-3------1-2-3------|--1-2-3-3-3---1-2-3-3-3----|--1-2-3-3-3---1-2-3-3-3-----|

|---------------------------|

|---------------------------|

|---------------------------|

|--3-3-3-3-3-3-3-3-3-3-3----|

|----------------------------------|

|----------------------------------| X4 times

|----------------------------------|

|--0--0----0--0----0--0----0--0----|

|--------------------------------------------------|

|--------------------------------------------------| X2

|--------------------------------------------------|

|--0--0--3--0--3--0--0--3--0--0--3--0--3--0--0--0--|

|----------------------------------------|

|----------------------------------------| X 4

|----------------------------------------|

|--0-0-12-0-12-0-0-12-0-0-12-0-12-15b15r-|

|--------------------------|

|--------------------------|

|--------------------------|

|--7--7--7-7---3--3--3-3---|

|------------------------------|--------------------------|

|------------------------------|--------------------------|

|------------------------------|--------------3--3--3-3---|

|--5--0--0--0-0---12h0-12h15---|--7--7--7-7---------------|

|------------------------------|

|------------------------------|

|------------------------------|

|--5--0--0--0-0---12h0-12h15---|

|---------------------------|

|---------------------------| X4

|---------------------------|

|--3--0-3h5-0---3--3h-5-0---|

|--------------------------|

|--------------------------|

|--------------------------|

|--7--7--7-7---3--3--3-3---|

|------------------------------|--------------------------|

|------------------------------|--------------------------|

|------------------------------|--------------3--3--3-3---|

|--5--0--0--0-0---12h0-12h15---|--7--7--7-7---------------|

|------------------------------|

|------------------------------|

|------------------------------|

|--5--0--0--0-0---12h0-12h15---|

|---------------------------|

|---------------------------| X10

|---------------------------|

|--3--0-3h5-0---3--3h-5-0---|

|----------------------------------------|

|----------------------------------------| X4

|----------------------------------------|

|--0-0-12-0-12-0-0-12-0-0-12-0-12-15b15r-|

|--------------------------------------------------|

|--------------------------------------------------| X2

|--------------------------------------------------|

|--0--0--3--0--3--0--0--3--0--0--3--0--3--0--0--0--|

|--------------------------|--------------------------|

|--------------------------|--------------------------|

|--------------------------|--------------------------|

|--7--7--7--7--7--7--7--7--|--6--6--6--6--6--6--6--6--|

|--------------------------|--------------------------|------------------------|

|--------------------------|--------------------------|------------------------|

|--------------------------|--------------------------|------------------------|

|--5--5--5--5--5--5--5--5--|--6--6--6--6--6--6--6--6--|--1-2-3------1-2-3------|

|------------------------|--------------------------|--------------------------|

|------------------------|--------------------------|--------------------------|

|------------------------|--------------------------|--------------------------|

|--1-2-3------1-2-3------|--7--7--7--7--7--7--7--7--|--6--6--6--6--6--6--6--6--|

|--------------------------|--------------------------|------------------------|

|--------------------------|--------------------------|------------------------|

|--------------------------|--------------------------|------------------------|

|--5--5--5--5--5--5--5--5--|--6--6--6--6--6--6--6--6--|--1-2-3------1-2-3------|

|------------------------|---------------------------|----------------------------|

|------------------------|---------------------------|----------------------------|

|------------------------|---------------------------|----------------------------|

|--1-2-3------1-2-3------|--1-2-3-3-3---1-2-3-3-3----|--1-2-3-3-3---1-2-3-3-3-----|

|---------------------------|

|---------------------------|

|---------------------------|

|--3-3-3-3-3-3-3-3-3-3-3-3--|

in the seven time enter the bass with this

|---------------------|---------------------|---------------------|

|---------------------|---------------------|---------------------|

|------3---5----------|------3---5----------|------3---5----------|

|--0h7-------0--0--0--|--0h7-------0--0--0--|--0h7-------0--0--0--|

|---------------------|------------------------|------------------------|

|---------------------|------------------------|------------------------|

|------3---5----------|--8--8--8----5----------|--8--8--8----5----------|

|--0h7-------0--0--0--|--10-10-10-----0--0--0--|--10-10-10-----0--0--0--|

|---------------------|---------------------|---------------------|

|---------------------|---------------------|---------------------|

|------3---5----------|------3---5----------|------3---5----------|

|--0h7-------0--0--0--|--0h7-------0--0--0--|--0h7-------0--0--0--|

|---------------------|------------------------|---------------------|------||

|---------------------|------------------------|---------------------|------||

|------3---5----------|--8--8--8----5----------|--8--8--8----5-------|------||

|--0h7-------0--0--0--|--10-10-10-----0--0--0--|--10-10-10-----0-----|------||Added by tabs-database.com and our distinguished partners

Get this song at:  amazon.com

Share your thoughts

0 Comments found