Metallica

Metallica - Of Wolf And Man (gtr1 & Gtr2) guitar tab

f Wolf And Man

Original Artist: Metallica

Writer and Co-Writer: James Hetfield & Lars Ulrich

Tuning: Standard (Low To High) EADGBe

Alright kiddies. The basic layout of this song is REALLY easy if you

follow along with the song. Again...its laid out pretty easy, but when

you get to the solo your gonna need alot of Wah. I think Kirk must

sleep with that thing at night or something. Ive tabbed out both

guitar one and guitar two for this, so take care in how you play

both of them at once.Anyway....Just tune your guitar to standard

tuning and rock out. Also...Ive found that if yourplaying this song

in a band, it sounds really good tuned half step down to!! So check

it out and see what you think suits your playing style better. Have fun!!

METALLICA ROCK ON!!

Guitar 1 Intro

e---------------------------------------------------------------------

B--------------------------------------------------------------------

G--------------------------------------------------------------------

D----2---2---2---2-------------(Repeat until next riff)-----

A----2---2---2---2-------------------------------------------------

E----0---0---0---0-------------------------------------------------

^-------------------Drums and Bass enter here....

Guitar 2 Intro

e----------------------------------------------------------------------------

B---------------------------------------------------------------------------

G--------------------------------------------------------------------------------

D---9--10---11---12-----9--10---11--12----9---10---11--12------9--10---11---11~~~

A---7---8----9---10-----7--8----9---11----7---8----9---10------7--8----9----9~~~

E-----------------------------------------------------------------------------

Guitar 1 Verse

----------------------------------------------------------------------------

------------------------------------------------------------------------------

-----------------------------------------------------------------------------

-----------------------4------3~~--------(Repeat until next riff)--------

-----------3--2--------2------1~~----------------------------------------------

--0--0--0--1--0----0------0--------------------------------------------------

Guitar 1 and Guitar 2 Verse

e--------------------------------------------------------------------------------

B----------------------------------------------------------------------------

G------------------------------------------------------------------------------

D-----------------------4------3~~------------------------------------------

A-----------3--2--------2------1~~------5h7p5p0-5h7-5-7-7---------------

E--0--0--0--1--0----0------0--------------------------------------------------

Guitar 1 Fill

E----------|---------------------|-------------------------------------------

B----------|---------------------|------------------------------------------

G----------|---------------------|---------------------------------------------

D---4---3--|-------------4--3----|---------------6---5----------------6--5--

A---2---1--|--2-2-3--2---2--1----|-2--2--3--2----4---3--4--4--5--4----4--3--

E-0---0----|--0-0-1--0---0--0----|-0--0--1--0-----------2--2--3--2---------

Guitar Solo

|----------------------------------------|

|----------------------------------------|

|---4p2p0---0----4p2p0---0----4p2p0------|

|---------2------------2------------2p0--|

|----------------------------------------|

|----------------------------------------|

|-------------------------------------------------|

|-------------------------------------------------|

|--4p2p0------------4p2p0-4p2p0-------------------|

|-------4p2p0-------------------4p2p0-4p2p0-------|

|-------------4p2p0-------------------------4p2p0-|

|-------------------------------------------------|

|----------------------------------------------------------------------------------|

|----------------------------------------------------------------------------------|

|------------------------------------------------------------------12-14-14b(16)---|

|-----------------------------------------------------------12h14------------------|

|-2p0-3p0-4p0-5p0-6p0-p7p0-8p0-9p0-9p0-10p0-11p0-12p0-12h14------------------------|

|----------------------------------------------------------------------------------|

|--------------------------------------| |--------------|

|---------------12-15---------12-15p12-| |----12h15p12--|

|-12-------9s14-------14b(16)----------| |-14-----------|

|----14--------------------------------| |--------------|x8

|--------------------------------------| |--------------|

|--------------------------------------| |--------------|

~~~~~~~~~~~~

|-------------------------12------------------12----------|

|-15b(17)-15b(17)----(17)----15p12---------12----15p12----|

|----------------------------------14b(16)----------------|

|---------------------------------------------------------|

|---------------------------------------------------------|

|---------------------------------------------------------|

|---------12-12---------------------------------------------------|

|---------------15p12---------12-15p12----------------------------|

|-14b(16)-------------14b(16)----------14p12----12-14b---(16)-----|

|--------------------------------------------14-------------------|

|-----------------------------------------------------------------|

|-----------------------------------------------------------------|

~~~~~~~~~~~ *

|----------------------|---------------------------------------|

|----------------------|-15--15-15--15-15--17p15----15--15-15--|

|-12-------------------|-15--15-15--15-15--17p15----15--15-15--|

|----14------(14)8/17-|-------------------------17------------|

|----------------------|---------------------------------------|

|----------------------|---------------------------------------|

|-----------------------------------------------|

|-17p15-----------------------------------------|

|-17p15----15-17p15----15-17p15------------15--|

|-------17----------17----------17-15-17--------|

|-----------------------------------------------|

|-----------------------------------------------|

*

|------------------------------------|

|---------------------------8----8---|

|----------8----8--10-8-10----10-----|

|-10-8-10----10----------------------|

|------------------------------------|

|------------------------------------|

|---------8------------------------------------------------------------|

|-11b(13)---11p8---------8-11p8-11b(13)--[13]-[13]-[13]-[13]-[13]-[13]-|

|----------------10b(11)-----------------------------------------------|

|----------------------------------------------------------------------|

|----------------------------------------------------------------------|

|----------------------------------------------------------------------|

|---------------------------------------------------------|

|-[13]--[13]-[13]-[13]-[13]--[13]--[13]--[13]--[13]--[13]-|

|---------------------------------------------------------|

|---------------------------------------------------------|

|---------------------------------------------------------|

|---------------------------------------------------------|

~~~~~~~~~

|-------------------------------------|

|-(13)-------r(11)-8------------------|

|--------------------9----------------|

|------------------------------10/14--|

|-------------------------------------|

|-------------------------------------|

|-----------------------| |----------------------|------------|----------------|

|--------------14p12----| |-------------------12-|-(12)----12-|-(12)---(12)---|

|--12h14p12-------------| |-12h14p12----------12-|-(12)----12-|-(12)---(12)---|

|-----------14-------14-|x4 |----------14-12-14----|------------|----------------|

|-----------------------| |----------------------|------------|----------------|

|-----------------------| |----------------------|------------|----------------|

8a) Both

E-----------------------|----------------------|------------------

B-----------------------|----------------------|------------------

G-----------------------|----------------------|------------------

D-----------------------|-----------------6-5--|-4-5-6-7?5-6-7-8--

A-------3-2-------------|-------5-4-------4-3--|-2-3-4-5?3-4-5-6--

E-0-0-0-1-0?0-0-0-0-0?0-|-2-2-2-3-2-2-2-2------|------------------

Thats all. By now you should have mastered the other riffs and the rest is history.

Get this song at:  amazon.com

Share your thoughts

0 Comments found