Metallica

Metallica - Nightmare (Be Thy Name) guitar tab

Nighmare (Be Thy Name)

written by Merciful Fate

as performed live by Metallica

tab by John Flaherty; Blind2345@aol.com

----9-8------9-8------9-8------9-8-9-11---------------------------------------

--------10-7-----10-7-----10-7------------------------------------------------

------------------------------------------------------------------------------

----------------------------------------------0---------0-------------------2-

----------------------------------------0-1-2---2-0-1-2---2-----------------0-

--2---------------------------------------------------------0-1-2--2-2-2-2----

lyrics go "you've got to stop this game"

------------------------------------------------------------------------------

------------------------------------------------------------------------------

------------------------------------------------------------------------------

-----------------------2---5---5/7---2---3-2---5---5/7---5-5-4----------------

---------------5---3---2---5---5/7---2---3-2---5---5/7---5-5-4----------------

-2-2-2-2-2-2-2-3-2-1---0-0-3-0-3/5-0-0-0-1-0-0-3-0-3/5-0-3-3-2----------------

Get this song at:  amazon.com

Share your thoughts

0 Comments found