Metallica

Metallica - Littlewing guitar tab

THIS SONG KICKS ASS..Originally by Jimi Hendrix then by some other dudes.. email me the whole song for whoever knows it

e-----------------------------------3h5p3-3----------------

B--12\\----x-x--x--------------------3-----3----------------

G--12\\----x-x--x-----------5--------4-------4---5-5p4-5p4--

D--12\\----x-x--x-----5-----5h7----5-----------5---5---5---5

A---------x-x--x-------5h7---------------------------------

E------0--x-x--x-5h7------------3--------------------------

e----------------------------------------------------------------

B---------------------------------------8h10p8-------------------

G---------5----5h7-5--------------------7------7------5-5---5-5--

D---------5----------7---------------------------9----5-7-9-7-5-7

A-----5h7----7----------5h7p5----------------------7-------------

E--5--------------------------5h7p5--0---------------------------

e----4-9----7----7--------------------------------------------5/7-5-5\\3-3-3-3-3

B----5-7-10---10-7--------------------------------------------3/5-3-3-1-1-1-1-1

G----5-7-----------7-------6-------5-5-5-5----------5---------------------0-0-0

D--------------------7---6---6-----7-9-7-5-5-5------5-------5-5/7-5-5-3-3-3-3-3

A--9-------------------8-------------------8-7--7-8----------------------------

E--7-------------------6--------5---------------------5h7\\3--------------------

*

thumb

e--0------------------------------------

B--1--1-1------------------7-7-7------7\\

G--0--0-0-------------7----7-7-7------7\\

D--2--2-2------7--7---7h9--7-7-7---7--7\\

A--3--3-3-3/5--5----5----------7h8-7--9\\

Get this song at:  amazon.com

Share your thoughts

0 Comments found