Metallica

Metallica - ... & Justice For All guitar tab

Intro: (clean)

|----------------------------------------------|

|----------------------------------------------|

|.---------------------------------------------|

|.-6-7-9---7-6h7p6-4-5-5-4-7-4-2-3-5---3-2h3p2-|

|--7-----7---------5-----5---5-3-----3---------|

|--0-------------------------------------------|

(x 5)

|----------------------------|

|----------------------------| 3rd and 4th times

|-----------------------2---.| play this with distortion

|-0-2-2-0-2-0-0-2-2-0-2---3-.| I can't remember how Gtr. 2 goes

|-2-----2---2-1-----1-----1--| 5th time play all distorted

|----------------------------|

Riff 1:

|------------------------------|--------------------------|

|-.----------------------------|--------------------------|

|-3----.-.----.-.-.----.-.-.-.-|-5-3-2---3-2-----2--------|

|-3----8-7----8-7-6----8-7-6-5-|-5-3-2-5-3-2-5-3-2-5-3-2--|

|-1----8-7----8-7-6----8-7-6-5-|-------5-----5-3---5-3-2--|

|------6-5----6-5-4----6-5-4-3-|--------------------------|

|---------------------------------|

|---------------------------------|

|--2------------------------------|

|--2--5--3--2----5-3-2---2--------|

|-----5--3--2----5-3-2-5-2-5-3-2--|

|----------------------5---5-3-2--|

Riff 2 (x 4)

|--------------------------------|-----------------------------------|

|--------------------------------|-----------------------------------|

|--------------------------------|.---------------------------------.|

|-2------------------------(2)---|.-(2)-------------------------(2)-.|

|-2------------------------(2)---|--(2)-------------------------(2)--|

|-0------------------------(0)---|--(0)-------------------------(0)--|

Riff 3: (x 4)

|------------------------------------------------|

|------------------------------------------------|

|-.-.----.-.------------------.-.----------------|

|-8-8-7--8-8-7---------------8-8-7---------------|

|-8-8-7--8-8-7----5h7-7-5----8-8-7----5h7-7-5----|

|-6-6-5--6-6-5--0---------7--6-6-5--0---------7--|

Riff 4:

|-------------------------|-----------|-----------|-----------|

|-------------------------|-----------|-----------|-----------|

|-.-.----.-.--------------|-2---------|-----------|-2---------|

|-8-8-7--8-8-7--2---------|-2---------|-2---------|-2---------|

|-8-8-7--8-8-7--2---------|-0---------|-2---------|-0---------|

|-6-6-5--6-6-5--0---------|-----------|-0---------|-----------|

Riff 3 (x 2)

Riff 5:

|-------------------------------------------------|

|-------------------------------------------------|

|-.-.----.-.------.----.--------------.----.------|

|-8-8-7--5-5-4----2--x-2-2-------3----2--x-2--2---|

|-8-8-7--5-5-4--.-2--x-2-2---.-.-3--.-2--x-2--2---|

|-6-6-5--3-3-2--0-0--x-0-0---0-0-1--0-0--x-0--0---|

|---------------------------------------------------------------|

|---------------------------------------------------------------|

|-.-.----.-.------.----.--------------.----.------.-.----.-.----|

|-8-8-7--8-8-7----2--x-2-2-------3----2--x-2--2---8-8-7--8-8-8\\-|

|-8-8-7--8-8-7--.-2--x-2-2---.-.-3--.-2--x-2--2---8-8-7--8-8-8\\-|

|-6-6-5--6-6-5--0-0--x-0-0---0-0-1--0-0--x-0--0---6-6-5--6-6-6\\-|

Verse 1

=======

Riff 6: (x 4)

|-------------------------------------------------|

|-------------------------------------------------|

|--------.-------------------.------.-.----.-.----|

|---2--x-2-2-------3----2--x-2--2---8-8-7--8-8-7--|

|-.-2--x-2-2---.-.-3--.-2--x-2--2---8-8-7--8-8-7--|

|-0-0--x-0-0---0-0-1--0-0--x-0--0---6-6-5--6-6-5--|

Fill 1: ??

|-----------------------------|

|-----------------------------|

|-----------------------------|

|-----------------------------|

|-----------------------------|

|-----------------------------|

Riff 7: (x 3)

|-------------------------------|------------------------------------|

|-------------------------------|------------------------------------|

|.-----------------------------.|--------------0h5h7-----------------|

|.-3-------------4\\3---4/5-4/5-.|-3-----------------0h5h7------------|

|--3-------------4\\3---4/5-4/5--|-3----------------------0h5h7-0h2h3-|

|--1-1-1-1-1-1-1-2\\1-0-2/3-2/3--|-1-1-1-1-1-1-1----------------------|

(x 3)

|-------------------------------|------------------------------------|

|-------------------------------|------------------------------------|

|.-----------------------------.|--------------0h5h7-----------------|

|.-3-------------4\\3---4/5-4/5-.|-3-----------------0h5h7------------|

|--3-------------4\\3---4/5-4/5--|-3----------------------0h5h7-0h2h3-|

|--1-1-1-1-1-1-1-2\\1-0-2/3-2/3--|-1-1-1-1-1-1-1----------------------|

|-------------------------------------------------------|

|-------------------------------------------------------|

|-0h5h7-------------------------------------------------|

|------0h5h7------------4-2--------------4\\3---4/5-4/5--|

|-----------0h5h7-0h2h3-4-2--------------4\\3---4/5-4/5--|

|-----------------------2-0--0-0-0-0-0-0-2\\1-0-2/3-2/3--|

Chorus

======

Riff 8:

|-------------------------------------------------|

|-------------------------------------------------|

|--2----4----5------------------------------------|

|--2----4----5----4-2--------------4\\3---4/5-4/5--|

|--0----2----3----4-2--------------4\\3---4/5-4/5--|

|-----------------2-0--0-0-0-0-0-0-2\\1-0-2/3-2/3--|

|------------------------------------------|-------------------------|

|------------------------------------------|-------------------------|

|-2----4-----------------------------------|-2----4----0----5--------|

|-2----4----4-2--------------4\\3---4/5-4/5-|-2----4----0----5----2---|

|-0----2----4-2--------------4\\3---4/5-4/5-|-0----2---------3----2---|

|-----------2-0--0-0-0-0-0-0-2\\1-0-2/3-2/3-|-----------3---------0---|

Riff 3 (x 2)

Riff 5

Verse

Chorus

Riff 3 (x 2)

Riff 1

Riff 2

Solo

====

Riff 7

Riff 6 (x ?)

Fill 2: ??

|------------------------------------------|

|------------------------------------------|

|------------------------------------------|

|------------------------------------------|

|------------------------------------------|

|------------------------------------------|

Riff 6 (x 3)

|--------------------------------------------------------------------|

|--------------------------------------------------------------------|

|--------------------------------------------------------------------|

|-8-8-7--8-8-7--7-7-6--7-7-6--6-6-5--6-6-5--5-5-4--5-5-4--3-4-4-4-4--|

|-8-8-7--8-8-7--7-7-6--7-7-6--6-6-5--6-6-5--5-5-4--5-5-4--3-4-4-4-4--|

|-6-6-5--6-6-5--5-5-4--5-5-4--4-4-3--4-4-3--3-3-2--3-3-2--1-2-2-2-2--|

Intro (x 5) w/distortion

(x 3)

|--------------------------------------------------|-----------------|

|--------------------------------------------------|-----------------|

|------.-.---.-----.-.---.-----.-.---.-----.-.---.-|.-----.-.---.---.|

|--6---6-6-6-6-4---4-4-4-4-2---2-2-2-2-0---0-0-0-0-|.-0---0-0-0-0---.|

|--7---7-7-7-7-5---5-5-5-5-3---3-3-3-3-2---2-2-2-2-|--1---1-1-1-1----|

|--------------------------------------------------|-----------------|

(x 2)

|--------------------|---------------------------|

|--------------------|---------------------------|

|--------------------|.-------------------------.|

|--2------------(2)--|.-(2)-----------------(2)-.|

|--2------------(2)--|--(2)-----------------(2)--|

|--0------------(0)--|--(0)-----------------(0)--|

Riff 3 (x 2)

Fill 3:

|--------------|

|--------------|

|-.-.----.-.---|

|-8-8-7--2-2-3-|

|-8-8-7--2-2-3-|

|-6-6-5--0-0-1-|

Verse

Chorus

Riff 4 (repeat last bar)

Riff 8 (last bar only)

Riff 4

|---------|---------|---------|---------|---------|

|---------|---------|---------|---------|---------|

|-7-------|-5-------|---------|---------|-.-.-.---|

|-7-------|-5-------|-7-------|-5-------|-5-4-2---|

|-5-------|-3-------|-7-------|-5-------|-5-4-2---|

|---------|---------|-5-------|-3-------|-3-2-0---|

|---------|---------|---------|---------|

|---------|---------|---------|---------|

|---------|-5-------|---------|-.-.-.---|

|-5-------|-5-------|-7-------|-5-4-2---|

|-5-------|-3-------|-7-------|-5-4-2---|

|-3-------|---------|-5-------|-3-2-0---|

|---------|---------|---------|---------|

|---------|---------|---------|---------|

|---------|-.-.-.---|---------|-.-.-.---|

|-5-------|-5-4-2---|---------|-5-4-2---|

|-5-------|-5-4-2---|---------|-5-4-2---|

|-3-------|-3-2-0---|---------|-3-2-0---|

--

Here's the interlude to ...And Justice For All, tabbed out by

measures..it's mostly in 4/4 time, but the bars w/a "**" on the low E are

in 2/4. Obviously, i didn't include note values, but this is all pretty

straightforward.

e-------------------------|---------|--------|------------------|

B-------------------------|-------8-|-7------|------------------|

G-------------------0h5h7-|-----9---|---9--7-|-5-4-4-4-5p4------|

D-------------0h5h7-------|--/9-----|--------|-------------7----|

A-0h2h3-0h5h7-------------|---------|--------|------------------|

E-------------------------|---------|--------|------------------|

e--------------------|--------|--------|------------------|-----|

B--------------------|------8-|-7------|------------------|-----|

G-4------------------|----9---|---9--7-|-5--4-4--4--5p4p0-|-----|

D---7-5--3-3h5p3\\2~~-|-/9-----|--------|------------------|-----|

A--------------------|--------|--------|------------------|-----|

E--------------------|--------|--------|------------------|-----|

e-------------|--------|------------|-----------|---------------|

B-------------|------8-|-7--5h7p5\\3-|------8h10-|-8-7h8p7\\5-----|

G-------------|----9---|------------|----9------|---------------|

D-2/3--rest---|-/9-----|------------|-/9--------|---------------|

A-------------|--------|------------|-----------|---------------|

E-------------|--------|------------|-----------|---------------|

e-----------|---------------------------|-----------------------|

B------/12--|-12p10p8-12p10p8-12p10p8\\7-|---(this isn't a rest,

G----9------|---------------------------|-----i couldn't fit ---|

D-/9--------|---------------------------|-----the next measure)-|

A-----------|---------------------------|-----------------------|

E-----------|---------------------------|-----------------------|

e------------------------------|--------------------------------|

B------------------------------|--------------------------------|

G-11p9p7-11p9p7-11p9p7\\5-9p7p5-|--0h5h7-------------------------|

D------------------------------|--------0h5h7-------------------|

A------------------------------|--------------0h5h7--0h2h3------|

E------------------------------|------------------------play 2x-|

e---------------|----------------------|-------14-------17fb----|

B---------------|-17----14-------------|----------14------------|

G-5-5--4--5-5-4-|-16fb--14-----14-16fb-|-(16)------------------|

D-5-5--4--5-5-4-|-----------16---------|------------------------|

A-3-3--2--3-3-2-|----------------------|------------------------|

E---------------|----------------------|-**---------------------|

pm-- pm-

e-(17)r-17-14-17p14-17p14----19p14-|-20p14-20p14----19p14-19p14-17-|

B-------------------------17-------|-------------17----------------|

G----------------------------------|-------------------------------|

D----------------------------------|-------------------------------|

A----------------------------------|-------------------------------|

E----------------------------------|-**----------------------------|

e-17p14-17p14----14-14----------|-------------------------------|

B-------------17----17fb--------|---16hb----16hb----------------|

G----------------------------14-|---16fb----16fb----------------|

D-------------------------16----|-------------------------------|

A-------------------------------|-------------------------------|

E-------------------------------|-**----------------------------|

e--------------------------|----------vib w/bar-----------------|

B-16hbr--14h16-14----16-14-|----14-17~~~~~~~~~~-----------------|

G-16fbr--14----14----16-14-|----14-16fb-------------------------|

D-----------------16-------|-16---------------------------------|

A--------------------------|------------------------------------|

E--------------------------|------------------------------------|

e-----------------------------17p14-----------------------------|

B-14---14-17p14------14-17p14-------17-14------14---------------|

G-16fb----------16fb----------------------16fb------------------|

D---------------------------------------------------------------|

A---------------------------------------------------------------|

E-(w/wah as filter)---------------------------------------------|

e----------------|---------------------------|------------------|

B-17p14----------|-------14h17-15fbrp14-17fbr|p14h17---17fbrp14h|

G-------16-14----|-14-16---------------------|------------------|

D-------------16-|---------------------------|------------------|

A----------------|---------------------------|------------------|

E-**-------------|---------------------------|-**---------------|

e------------17fb-17hb-|-(17)~~---------|-----------------------|

B17-17fbrp14-----------|-------x--------|-------holdbend________|

G----------------------|------16p14h16--|-16-16fb-16-16-16-16-16|

D----------------------|----------------|-----------------------|

A----------------------|----------------|-----------------------|

E----------------------|-**-------------|-----------------------|

e----------------|-22p19p0-0-0-21p17p0-0-0-18p15p0-0-0-17p14p0-0-0-|

B__------17fb~~~-|-------------------------------------------------|

G16rp14----------|-------------------------------------------------|

D----------------|-------------------------------------------------|

A----------------|-------------------------------------------------|

E----------------|-------------play 2 times------------------------|

e-19p0-17p0-15p0-14p0-17p0-15p0-14p0-12p0-----------------------|

B---------------------------------------------------------------|

G---------------------------------------------------------------|

D---------------------------------------------------------------|

A---------------------------------------------------------------|

E---------------------------------------------------------------|

harm.

e-15p0-14p0-12p0-10p0-10p8p7--------10p8p7--------|-*-----------|

B----------------------------10p8p7--------10p8p0-|-5\\----------|

G-------------------------------------------------|-5\\----------|

D-------------------------------------------------|-trem dive---|

A-------------------------------------------------|-------------|

E-------------------------------------------------|-------------|

Get this song at:  amazon.com

Share your thoughts

0 Comments found