Metallica

Metallica - Jump In The Fire (intro) guitar tab

Ok now, this is my first really researched tabulature, so go

easy if you find any errors in it. Sorry for not writing down the

entire song, but I don't have enough time for that now when I'm

going to upper secondary school and all that. I hope you enjoy

playing this intro. I do :).

Metallica

"Jump In the Fire"

e|x

B|x

G|x

D|--------3-----------------3-----------------3--------5---3-----------3---------

A|----3-4---5-4-3p0-----3-4---5-4-3p0-----3-4---5-4-3--3---1-------3-4---5-4-3p0-

E|3-6---------------3-6---------------3-6----------------------3-6---------------

x

x

x

--------3-------3-------3--------5---3-----------3---------------3-------3h5p3---3--

----3-4---5-4-3---5-4-3---5-4-3--3---1-------3-4---5-4-3-----3-4---5-4-3-------5---5

3-6--------------------------------------3-6-------------3-6------------------------

x

x

x

--------------3-5~----------3-----------------3-------3-------3--------5---3-|

4-3-----3-4-5-----------3-4---5-4-3p0-----3-4---5-4-3---5-4-3---5-4-3--3---1-|

----3-6-------------3-6---------------3-6------------------------------------|

Verse intro

e|x

B|x

G|------------3---2--2--2--------------5---5.5.5.-6--------------3-----------|

D|------------3---3--3--3--------------5---5.5.5.-6--------------3---3--3--3-|

A|------------1---3--3--3--------------3---3.5.5.-4--------------1---3--3--3-|

E|1-3-3-1-3-0-----1--1--1--1-3-3-1-3-0---------------1-3-3-1-3-0-----1--1--1-|

Solo

James:

e|x

B|x

G|------------5---5.5.5.--6-|

D|------------5---5.5.5.--6-|

A|------------3---3.3.3.--4-|

E|1-3-3-1-3-0---------------|

Kirk:

e|---3--------------------------|

B|----6p3-3-6p3-3-6p3------6^8~-|

G|5^7----5-----5-----5p3-3------|

D|----------------------5-------|

A|x

E|x

Tabulature legend:

~ = vibrato

. = choked chord

^ = pull up string

h/p = hammer on/ pulloff

The End. Hope you enjoyed it :)

Get this song at:  amazon.com

Share your thoughts

0 Comments found