Metallica

Metallica - Guitar And Bass Doodle (Cunning Stunts) guitar tab

Guitar Part:

Cunning Stunts-Metallica

This is the guitar part in the bass and guitar doodle, I hope it’s all right, it should be,

so far it’s the only copy of the song on this site, so take what you can get, eh?

Anyways here it is. Theres a special pedal that kirk uses in this song, it looks kinda

like a wah, but I don’t think it is.

~=use vibrato

*=use harmonics

/=bend to note

h=hammer on

p=pull off

E----------------------------------------------------------

B------------5------5------------5---5---------------------

G----------5----------7-5-~7----5-------7-5-~7-------------

D--7-----7-----~7-------------7----~7----------------------

A----------------------------------------------------------

E----------------------------------------------------------

E-~8---5------~8---5---------------------------------------

B--------5-----------------------5-------------------------

G----------5---------5-~7------5---------------------------

D-------------------------~7-------~7-----9-5--------------

A----------------------------------------------------------

E----------------------------------------------------------

E-----------------------85858585---------------------------

B-----------------------(trill)----------------------------

G--------7----------------------------~9-------------------

D--------7-------------------------------------------------

A---2-3—-5/6/5/6----2-3------------2-----------------------

E-3---------------3-------------3----3---------------------

E----------------------------------------------------------

B----------------------------------------------------------

G----------------------------------------------------------

D---------2---6---7---9---12---~14-------------------------

A-----2----------------------------------------------------

E-0--------------------------------------------------------

E-----*12-------3-3-h5-p3-p2------*12------2-2-h3-p2-p0----

B---------*12---0-0-------------------*12--0-0-------------

G----------------------------------------------------------

D----------------------------------------------------------

A----------------------------------------------------------

E-0-----------------------------0--------------------------

E---*12---------*12---------*7-------*12-*12-*12-----------

B-------*12---------*12--------*7----------------*12-------

G----------------------------------------------------*12---

D----------------------------------------------------------

A----------------------------------------------------------

E-0----------0-----------0---------0-----------------------

E---repeat this part 4x, then break into nothing else------

B-------------------------------------------------matters--

G-------0-------0-------0----------------------------------

D-----4-------5-------7-------0-----0----------------------

A---2-------3-------5-------4-----2-----2------------------

E-0-------0-------0-------5-----3-----2--------------------

That’s it, it’s the best I got, if there’s anything wrong please tell me I’m always

looking to improve my tabs.

Bass Part:

Metallica

Cunning Stunts

Tabbed by Sublime5(Ryan VanPatten) - Futrebartender5@netscape.net

G ----14--16--14--13----14--16--14--13-|

D -------------------------------------|

A -------------------------------------|

E -0-----------------------------------|

(Play 2x)

G -13h1413-11------------14-------------14-----------------------|

D -------------14--11--------11------11----11--------------------|

A --------------------12---------12-----------12-----------------|

E --------------------------------------------------00-----------|

G -13h1413-11------------14-------------14-----------------------|

D -------------14--11--------11------11----11--------------------|

A --------------------12---------12-----------12------00---------|

E ---------------------------------------------------------------|

G --11------11---------11---------11-----|------12------12-------12---------|

D -------12----12---12----12---12---12---|----9----9-------9--------9-------|

A -----0----------0----------0---------0-|-10--------10------10-------10-0--|

E ---------------------------------------|----------------------------------|

G ---11---11---------11-------11---------|------12------12------------------|

D -----------12----12---12-------12------|----9----9-------9----------------|

A ------0--------0----------0-------0----|-10--------10------10-10-10p8-----|

E ---------------------------------------|-----------------------------0----|

Pause

(Play 6x)

G --10----10-----10-14------12----10-----9----9----9-12---10----9----|

D ----12----12---------12-----12----12----10---10------10---10---12--|

A 0-----0------0----------0-----0-----0-----0----0-------0----0----0-|

E -------------------------------------------------------------------|

(play 3 times)

G -------7-----4--------5------------5--------5-------------7-----4--------5--

D -----7-----5-----5------------7--------7--------7-------7-----5-----5-------

A --0-----------------0------------0--------0----------0-----------------0----

E ----------------------------------------------------------------------------

G ------7---4-----5-----------------------|

D ----7-------5---------------------------|

A --0-----0-----0-------------------------|

E ----------------------------------------|

G --------7-----4--------5------------7--------9------|

D------7-----5-----5------------7--------9--------10--|

A --0-----------------0------------0--------0---------|

E ----------------------------------------------------|

Get this song at:  amazon.com

Share your thoughts

0 Comments found