Metallica

Metallica - Come Kingdom Lie guitar tab

Come Kingdom Lie

written by Merciful Fate

as performed on Fancan1 CD

tab by Phil Boyle; ibzrg470@apk.net

tune all guitars down 1/2 step

eb---------------------------------------------------------------

Bb---------------------------------------------------------------

Gb-------------5----5---5h7--7-5---------------5-----5---5h7-----

Db--7--5h7p5h7----7---7-------------7--5h7p5h7-----7---7------7-5

Ab---------------------------------------------------------------

Eb---------------------------------------------------------------

eb-------------------------------------------------------------

Bb-----------------------------------8-5----5------------------

Gb-------------5----5---5h7--7-5---------7----7-5--7-5----5----

Db--7--5h7p5h7----7---7--------------------------------7----7-5

Ab-------------------------------------------------------------

Eb-------------------------------------------------------------

There are 4 parts to this riff, Lars humms one part of it (the

first) and Kirk fills in while Lars laughs.

Gb--------------------------------------------

Db-----------------------------5-7-8p7h8p7p5--

Ab--5h7-----7-----7-----7--5-7---------------7

Eb--0-0-0-0-0-0-0-0-0-0-0---------------------

pm....................

I think this is actually from "Corpse w/o a Soul", but I'm not sure.

Get this song at:  amazon.com

Share your thoughts

0 Comments found