Metallica

Metallica - Cliff Burton Memorial guitar tab

E------------------------------------------------------------

B------------------------------------------------------------

G-4/5--5--5-4--2-0--0—0-002—4/5—5/7-7--4-0--0--000-4-0-000-4-

D------------------------------------------------------------ x3

A------------------------------------------------------------

E------------------------------------------------------------

2nd guitar falls in at the second time you play it

E------------------------------------------------------------

B----------------------5----5--3-----0-1-2/3--333-5----------

G-2----2---5-2--2-5-2---5--5-55---00-------------------------

D--2--2-2---------------------------------------------------- x2

A------------------------------------------------------------

E------------------------------------------------------------

E------------------------------------------------------------

B----------------------7----7--5--00-2-3-3/5-555-7-----------

G-4----4---7-4--4-7-4---7--7-77------------------------------

D--4--4-4----------------------------------------------------

A------------------------------------------------------------

E------------------------------------------------------------

End:

E---------------------------------

B---------------------------------

G-4----4---7-4--4-7-4--4---4-7----

D--4--4-4---------------4-4-4-4-4-===> and than it suddenly stops so the rest (if there is a rest) I can't

A--------------------------------- tab out

E---------------------------------

Please rate this tab, it’s my first tab ever

Have fun!

Get this song at:  amazon.com

Share your thoughts

0 Comments found