Metallica

Metallica - Am I Evil? (Motorhead Cover) guitar tab

1)

G--9---7-9-10--12

D--9---7-9-10--12

A--7---5-7-8---10

E----------------

2a) James

G------------------------------------------------------------------------------------

D--2--2-2-2-2--2-2-2-2--2-2-2-2-2-2-2-2-2-2--2--2-2-2-2--2-2-2-2--2-2-2-2-2-2-2-2-2-2

A--2--2-2-2-2--2-2-2-2--2-2-2-2-2-2-2-2-2-2--2--2-2-2-2--2-2-2-2--2-2-2-2-2-2-2-2-2-2

E--0--0-0-0-0--0-0-0-0--0-0-0-0-0-0-0-0-0-0--0--0-0-0-0--0-0-0-0--0-0-0-0-0-0-0-0-0-0

  pm.................................................................................

2b) Kirk first 2 times, 4th

G---------------------------------------------------------------------------

D--2--------------------------9--8--------------------------------------3--2

A--2--------------------------9--8--------------------------------------3--2

E--0--------------------------7--6--------------------------------------1--0

let ring

2c) 3rd time

G-----------------------------------------------------------------------10-9

D--2--------------------------9--8--------------------------------------10-9

A--2--------------------------9--8--------------------------------------8--7

E--0--------------------------7--6------------------------------------------

let ring

2d) Kirk w/2a, after 2b's

G-----------------------------7-7-7-7-7-7-9

D-----------------------------7-7-7-7-7-7-9

A-----------------------------5-5-5-5-5-5-7

E------------------------------------------

3)

G--7-7-7-7-7-7----------------10-9-10-12---14---16

D--7-7-7-7-7-7------------9-8---------------------

A--5-5-5-5-5-5--------8-7-------------------------

E---------------0-7-6-----------------------------

4a)        4b)     4c)     4d)

e-------  ------  -------  ---  a->8 times

B--0h5h8  -0h4h7  -0h7h10  -7~  b->8 times

G-------  ------  -------  ---  a->4 times

D-------  ------  -------  ---  c->2 times

A-------  ------  -------  ---  a->2 times

E-------  ------  -------  ---  b->2 times, and then hold 4d

5) harmonics

G----7----------

D--7------7-----

A-------7------7

E------------7--

6)

G---------------------------

D--2-------5-----7-------8-5

A--2-------5-----7-------8-7

E--0-0-0-0-3-0-0-5-0-0-0-6-5

  pm......   ...   ......  

"My mother was a witch"

7)

G----------7-------------10-9

D--9-9-9-9-7-9-9-9-9-9-9-10-9

A--9-9-9-9-5-9-9-7-9-9-9-8--7

E--7-7-7-7---7-7---7-7-7-----

  pm......   ...   .....

"27 everyone was nice"

8)

G--9--7--5      -9--7--5---9--7--5---9--7--5---9--11-12---9

D--9--7--5 riff -9--7--5---9--7--5---9--7--5---9--11-12---9

A--7--5--3  6   -7--5--3---7--5--3---7--5--3---7--9--10---7

E---------      -------------------------------------------

9)

G--2--------2--------2----------7--2--------2--------2--------5--

D--2--------2--------2--------5-7--2--------2--------2--------5-5

A--0--0-0-0-0--0-0-0-0--0-0-0-5-5--0--0-0-0-0--0-0-0-0--0-0-0-3-5

E-----------------------------3---------------------------------3

     pm.....   .....    .....         .....    .....    .....

10)

G-----------------------------7------------------------------7-7

D--2--------2--------2--------7---2--------2--------2--------7-7

A--2--------2--------2--------5---2--------2--------2--------5-5

E--0--0-0-0-0--0-0-0-0--0-0-0-----0--0-0-0-0--0-0-0-0--0-0-0----

     pm....    .....    .....

"I'm with the action now"

11)

G-----------

D--2----5--7

A--2----5--7

E--0----3--5

pre-solo

12)

G------9-7-7--7-7-------------       -----9-7-7--7-7--7-7--7--

D------9-7-7--7-7------------- three -----9-7-7--7-7--7-7--7-7

A------7-5-5--5-5------5-7-5-- times -----7-5-5--5-5--5-5--5-7

E--0-0-------------5-7-------7       -0-0--------------------5

13)

G-------------------------------------

D--2-------5-----7-------8-5-------5-2

A--2-------5-----7-------8-7--x-x--5-2

E--0-0-0-0-3-0-0-5-0-0-0-6-5--x-x--3-0

  pm......   ...   ......

++++++++++++++++++++++++++++++++++++++++++++

solo:

      (Full)    P                              

|-----------7-------|----------------11-12--|

|------------10-7-7/|/12-----------12-------|

|-9^^^^^^^^^--------|-----------------------|

|-------------------|-----------------------|

|-------------------|-----------------------|

|-------------------|-----------------------|

    H  P       H  H        P  P     P  P

|-11-12-11---11-12-14-14-14-12-11-12-11----|-----------------7---|

|---------12----------------------------12-|-10---------/7-------|

|------------------------------------------|---------------------|

|------------------------------------------|---------------------|

|------------------------------------------|---------------------|

|------------------------------------------|---------------------|

            H P                   P       P   P

|-10-9--7--7-9-7-----7--------|--------------------------|

|----------------10----10-7---|-10-7---7-----------------|

|-----------------------------|------9---9-7-9-7---7---7-|

|-----------------------------|------------------9-------|

|-----------------------------|--------------------------|

|-----------------------------|--------------------------|

(Full)                        (Full)

|-----7-----------------------|-----7-----------------------|

|-----7-10-7---7--------------|-----7-10-7---7--------------|

|-9^^--------9---9-7-7------7-|-9^^--------9---9-7-7------7-|

|-----------------------------|-----------------------------|

|-----------------------------|-----------------------------|

|-----------------------------|-----------------------------|

(Full)

|-----7-----------------------|-/19--/20---/22---/24----------|

|-----7-10-7---7--------------|-------------------------------|

|-9^^--------9---9-7-7------7-|-------------------------------|

|-----------------------------|-------------------------------|

|-----------------------------|-------------------------------|

|-----------------------------|-------------------------------|

    P  P              P  P                P  P              P  P

|-15-14-12----12-14-15-14-12----12-14-|-15-14-12----12-14-15-14-12----12-14-|

|----------15----------------15-------|----------15----------------15-------|

|-------------------------------------|-------------------------------------|

|-------------------------------------|-------------------------------------|

|-------------------------------------|-------------------------------------|

|-------------------------------------|-------------------------------------|

|-15---14---12--------12---------|--------------------------------|

|----------------15--------15----|-14---12---14-------------------|

|--------------------------------|----------------12======--------|

|--------------------------------|--------------------------------|

|--------------------------------|--------------------------------|

|--------------------------------|--------------------------------|

(Full) P     P      P        P      P     P     P

|------7-0-0-9-0-0-10-0-0-|-12-0-0-10-0-0-9-0-0-7-0-0-|

|----7--------------------|---------------------------|

|-9^----------------------|---------------------------|

|-------------------------|---------------------------|

|-------------------------|---------------------------|

|-------------------------|---------------------------|

|-10---9---7--------7---------|----------------------------|

|--------------10-------10----|-9---7---9------------------|

|-----------------------------|-------------7======\-------|

|-----------------------------|----------------------------|

|-----------------------------|----------------------------|

|-----------------------------|----------------------------|

   HH  HH  HH  HH    HH  HH  HH  HH    HH  HH  HH  HH    HH  HH  HH  HH

|-----------------|-----------------|-----------------|-047-047-047-047-|

|-047-047-047-047-|-058-058-058-058-|-047-047-047-047-|-----------------|

|-----------------|-----------------|-----------------|-----------------|

|-----------------|-----------------|-----------------|-----------------|

|-----------------|-----------------|-----------------|-----------------|

|-----------------|-----------------|-----------------|-----------------|

   HH  HH  HH  HH    HH  HH  HH  HH   T PP T PP T PP T PP

|-058-058-058-058-|-047-047-047-047-|-1285-1285-1285-1285-|

|-----------------|-----------------|---------------------|

|-----------------|-----------------|*-------------------*|

|-----------------|-----------------|---------------------|

|-----------------|-----------------|*-------------------*|

|-----------------|-----------------|---------------------|

  T PP T PP T PP T PP   T PP T PP T PP T PP   T PP T PP T PP T PP

|-1385-1385-1385-1385-|-1396-1396-1396-1396-|-1496-1496-1496-1496-|

|---------------------|---------------------|---------------------|

|*-------------------*|*-------------------*|---------------------|

|---------------------|---------------------|---------------------|

|*-------------------*|*-------------------*|---------------------|

|---------------------|---------------------|---------------------|

  T P P T P P T P P T P P    HH  HH  HH  HH    HH  HH  HH  HH

|-14107-14107-14107-14107-|-047-----047-----|-047-----047-----|

|-------------------------|-----047-----047-|-----047-----047-|

|*-----------------------*|-----------------|-----------------|

|-------------------------|-----------------|-----------------|

|*-----------------------*|-----------------|-----------------|

|-------------------------|-----------------|-----------------|

   HH  HH  HH  HH    HH  HH  HH  HH    HH  HH  HH  HH    HH  HH  HH  HH

|-----------------|-----------------|-----------------|-----------------|

|-047-----047-----|-047-----047-----|-----------------|-----------------|

|-----047-----047-|-----047-----047-|-047-----047-----|-047-----047-----|

|-----------------|-----------------|-----047-----047-|-----047-----047-|

|-----------------|-----------------|-----------------|-----------------|

|-----------------|-----------------|-----------------|-----------------|

   HH  HH  HH  HH                         P  P     P  P     P  P     P  P

|-----------------|-------------------|-------------------------------------|

|-----------------|----------------12-|-1514-0-0-1715-0-0-1514-0-0-1715-0-0-|

|-----------------|-------------/14---|-------------------------------------|

|-047-----047-----|-------------------|-------------------------------------|

|-----047-----047-|-------------------|-------------------------------------|

|-----------------|-7\----------------|-------------------------------------|

    P  P    P  P    P  P    P  P

|-------------------------------------|---------------------------------|

|-1514-0-0-1715-0-0-1514-0-0-1715-0-0-|-1514-0-1412-0-1210-0-109-0-97-0-|

|-------------------------------------|---------------------------------|

|-------------------------------------|---------------------------------|

|-------------------------------------|---------------------------------|

|-------------------------------------|---------------------------------|

                     (Full)      P                     (Full)

|-------------------|----------------------|------------10^====|

|-7-----------------|-10^------107---7-----|-------------------|

|-7-9-7---7---------|--------------9---9-7-|-9-7---7-----------|

|-------------------|----------------------|-----9-------------|

|-------------------|----------------------|-------------------|

|-------------------|----------------------|-------------------|

              H  P    H  P     H P   H P    ~~~~~~~~

|-9----12-------------------|--------------------------|

|-----------10-12-10-8-10-8-|-7-8-7-5-6-5--3========---|

|---------------------------|--------------------------|

|---------------------------|--------------------------|

|---------------------------|--------------------------|

|---------------------------|--------------------------|

Get this song at:  amazon.com

Share your thoughts

0 Comments found