Metallica

The Small Hours-(5-string) Bass Tabs



More from Metallica

Metallica Tabs
Metallica Chords
Metallica Bass
Metallica Lyrics



BASS
METALLICA
THE SMALL HOURS

TABBED BY BILLY MILNE
BEADG

RIFF-VERSE
G--------------------------------
D--------------------------------
A--------------------------------
E--------------------------------
B-4-4--6-H-7--6-H-7--4-4--/7-----

RIFF-CHORUS
G----------------------------
D----------------------------
A-----------4----------------
E-------4-6----6-4-6-4-2-----
B-4~~~-----------------------

G----------------------------
D----------------------------
A-----4-------6--6-H-8-6-----
E-4-6----6-4-----------------
B----------------------------

RIFF
G-------------------------
D-------------------------
A-------------------------
E-------------------------
B-4----5----7--5----------

RIFF
G-------------------------
D-------------------------
A-------------------------
E-------------------------
B-4----5----7--5--4~~~~---



Get this song at amazon.com      Ebay     Ringtones Ringtones  


Learn to play: Songwriting, Piano, Harmonica, Guitar
More Metallica lyrics available at Muzikum

Related Metallica Bass Tabs

Cliff Em All Bellz bass
My Friend Of Misery (solo) bass
Bass/guitar Doodle In Paris bass
Poor Twisted Me bass
Cunning Stunts: Bass/guitar Doodle bass
Bass Solo Seattle 1989 bass
Mexico City Guitar Solo bass
Dont Tread On Me bass
Ride The Lighning bass
Blitzkrieg bass
Purify bass
Astronomy bass
One bass
St Anger bass
Some Kind Of Monster Intro bass
Ride The Lightning bass
Nothing Else Matters Tab bass
Fight Fire With Fire bass
Frantic bass
Enter Sandman bass


Guitar Tabs









All tabs are property and copyright of their owners. All tabs provided for educational purposes only. Privacy Policy, DMCA