Metallica

Sweet Amber Bass Tabs



More from Metallica

Metallica Tabs
Metallica Chords
Metallica Bass
Metallica Lyrics




Sweet amber by Metallica

Post_german@hotmail.com

intro:
G-------------------------------------------
D-------------------------------------------
A---3-3-3---3-3-3-3--3-3-3------------------
E-------------------------------------------

Verse/Main Riff:
G-----------------------------------------
D------------------------1-3-1-------------------
A-1-1-333-1-1-333------------------------
E-----------------------------------------
Dont know if its the right number of notes, but it follows the
guitar.


Pre Chorus

Uh, sweet amber…
G----------------------------
D----------------------------
A-3---1----------------------
E---------4------------------

Chorus:

How sweet are you…
G---------------------------
D---------------------------
A--1-1-1-3-1-1-1------------
E---------------------------


Interlude

Using what i want…
G--------------------------
D--------------------------
A-3-1-1-3-1-1-3-1-1-6-6-5--
E--------------------------



bridge
G----------------------------------------------
D----------------------------------------------
A-3-1-1-1-3-1-1-1-6--3-5-3-3-3-5-3-3-3---8-6-3-
E----------------------------------------------


Intro x1
Verse x20
Pre Chorus x1
Interlude x2
Pre chorus x1
Interlude x4
Pre Chorus x1
Chorus x4
*Pause*
Verse x12
Pre chorus x1
Interlude x2
Pre Chorus x1
Interlude x4
Pre Chorus x1
Chorus x4
*Pause*
Bridge x8
Pre chorus x1
Bridge x4
Pre chorus x1
Chorus x4



Get this song at amazon.com      Ebay     Ringtones Ringtones  


Learn to play: Songwriting, Piano, Harmonica, Guitar
Also available at Muzikum: Metallica - Sweet Amber lyrics

Related Metallica Bass Tabs

Linus And Lucy bass
Anethesia)pulling Teeth bass
Bad Seed bass
And Justice For All bass
Nothing Else Matters Tab bass
Embo bass
Damage Inc bass
Fixxer bass
Pulling Teeth (anesthesia) bass
Damage Inc (perfect) bass
Bleeding Me bass
Die Die Die My Darling (misfit Cover) bass
Sanitarium bass
One (guitar Intro) bass
Mexico City Bass Solo bass
Fade To Black (interlude) bass
Last Caress bass
Seek And Destroy bass
Crash Course In Brain Surgery bass
Thorn Within bass


Guitar Tabs









All tabs are property and copyright of their owners. All tabs provided for educational purposes only. Privacy Policy, DMCA