Metallica

Mexico City Guitar Solo Bass Tabs



More from Metallica

Metallica Tabs
Metallica Chords
Metallica Bass
Metallica Lyrics




Artist: Metallica
Song: Mexico City Guitar Solo
From: Live Shit: Binge and Purge

v = vibrato

G-------------------// x4
D-------7-7-5-5-2-2-//
A--0-0--------------//
E-------------------//

G-------7-7-5-5-2-2-// x2
D--0-0--------------//
A-------------------//
E-------------------//

G-------------------// x2
D-------7-7-5-5-2-2-//
A--0-0--------------//
E-------------------//

G------------------/------7-7-5-5-2-2-/------------------/--------------------//
D------------------/--0-0-------------/--------------5-5-/-----------------10-//
A------7-7-5-5-2-2-/------------------/--0-0-5-5-6-6-----/--0-7-7-7-7-7-7-----//
E--0-0-------------/------------------/------------------/--------------------//

play that whole part 3 times
then:

G---------7----13v-/-------//
D-------6----------/-------//
A----7-------------/---0---//
E--0---------------/-------//

and thats it



Get this song at amazon.com      Ebay     Ringtones Ringtones  


Learn to play: Songwriting, Piano, Harmonica, Guitar
More Metallica lyrics available at Muzikum

Related Metallica Bass Tabs

Battary bass
James Hetfield Locker Room Song bass
Embo bass
The Small Hours-(5-string) bass
Cool Cliff Burton Solo!! bass
One bass
Cliff Em All Bellz bass
Damage Inc (perfect) bass
Carpe Diem Baby bass
Eye Of The Beholder bass
Enter Sandman (bass Tab) bass
Anethesia bass
53rd&3rd bass
Anesthesis(pulling Teeth) bass
Don't Tread On Me bass
To Live Is To Die bass
Die Die My Darling bass
Stone Cold Crazy bass
Jason Newstaed And Kirk Hammett Solo bass
The Frayed Ends Of Sanity bass


Guitar Tabs









All tabs are property and copyright of their owners. All tabs provided for educational purposes only. Privacy Policy, DMCA