Metallica

Master Of Puppets Correct Version Bass Tabs



More from Metallica

Metallica Tabs
Metallica Chords
Metallica Bass
Metallica Lyrics



Master Of Puppets


Metallica
Cliff Burton (bass guitar)



W E Q. E E H. E H. E
G||-------------------|-------------------------------|---------------------|
D||-------------------|-------------------------------|---------------------|
A||-------------------|------------5--4--3------------|---------------------|
E||-------------------|--0----------------------------|--0------------------|


H. E E E Q. E E Q H. E E
---------------------|-----------------------||----------------------|
---------------------|-----------------------||*---------------------|
---------------------|------------5--4--3----||*---------------------|
------------------0--|--0--------------------||-------------------0--|


E Q. E E Q W S H. E.
------------------------||-------------------||----------------------|
-----------------------*||-------------------||*---------------------|
------------5--4--3----*||-------------------||*---------------------|
--0---------------------||-------------------||---0------------------|


H S S S S S S S S S S S S S S S S S S S S S S S S
----------------------------||----------------------------------|
---------------------------*||----------------------------------|
---------------------------*||------2-----3-----4-----3-----2-2-|
-----------3-2-0-3-2-0-3-2--||--0-1---0-1---0-1---0-1---0-1-----|


S S S S S S S S S S S S S S E S S S S S S S S S S S S S S S S
---------------------------------|----------------------------------|
---------------------------------|----------------------------------|
------2-----3-----4-----3-----2--|------2-----3-----4-----3-----2-2-|
--0-1---0-1---0-1---0-1---0-1----|--0-1---0-1---0-1---0-1---0-1-----|


S S S S S S S S S S S S S S S S S S S S S S S S S S S S S S S S
----------------------------------|----------------------------------|
----------------------------------|----------------------------------|
------2-----3---------------------|------2-----3-----4-----3-----2-2-|
--0-1---0-1---0-1-3-2-0-3-2-0-3-2-|--0-1---0-1---0-1---0-1---0-1-----|


S S S S S S S S S S S S S S E S S S S S S S S S S S S S S S S
---------------------------------|----------------------------------|
---------------------------------|----------------------------------|
------2-----3-----4-----3-----2--|------2-----3-----4-----3-----2-2-|
--0-1---0-1---0-1---0-1---0-1----|--0-1---0-1---0-1---0-1---0-1-----|


S S S S S S S S S S S S S S S S S S S S S S S S S H. E.
----------------------------------|-------------------------------------|
----------------------------------|-------------------------------------|
------2-----3---------------------|-------------------------------------|
--0-1---0-1---0-1-3-2-0-3-2-0-3-2-|--3-2-0-3-2-0-3-2-0------------------|


S S S S S S S S S S S S S S S S S S S S S S S S S T S. T S.
----------------------------------|------------------------------|
----------------------------------|------------------------------|
----------------------------------|------------------------------|
--0-0-0-0-0-0-0-0-0-3-5-0-6-5-3-5-|--0-0-0-0-0-0-0-0-0-3-5--3-5--|


S S S S S S S S S S S S S S S S S S S S S S S S S T S. T S.
----------------------------------|------------------------------|
----------------------------------|------------------------------|
----------------------------------|------------------------------|
--0-0-0-0-0-0-0-0-0-3-5-0-6-5-3-5-|--0-0-0-0-0-0-0-0-0-3-5--3-5--|


S S S S S S S S S S S S S S S S S S S S S S S S S T S. T S. 4x
|-----------------------------------|-------------------------------||
|*----------------------------------|------------------------------*||
|*----------------------------------|------------------------------*||
|---0-0-0-0-0-0-0-0-0-3-5-0-6-5-3-5-|--0-0-0-0-0-0-0-0-0-3-5--3-5---||


S S S S S S S S S S S S S S S S S S S S S S S S S T S. T S.
-----------------------------------|-------------------------------||
*----------------------------------|------------------------------*||
*--------------------0-2---3-2-0-2-|--------------------0-2--0-2--*||
---2-2-2-2-2-2-2-2-2---------------|--2-2-2-2-2-2-2-2-2------------||


S S S S S S S S S S E E E S S S S S E.
------------------||------------------------------|
------------------||*-------------------9-5---5---|
--2-2-2-2-2-2-2-2-||*--7-7----5--7----x-----9-----|
------------------||------------------------------|


S S S S E E S S S S E E S S E E E S S S S S E.
------------------------------|-----------------------------|
------------------------------|-------------------9-5---5---|
------------------------6-----|--7-7----5--7----x-----9-----|
--8-8-8-8-8--7--8-8-8-8----7--|-----------------------------|


S S S S E E S S S S E E S S S S E E S S S S S S S S
-------------------------------||--------------------------------|
------------------------------*||--------------------------------|
------------------------6-----*||----------------9-7-6---6-------|
--8-8-8-8-8--7--8-8-8-8----7---||--8-8-8-8-8--7------------8-7---|


E E Q E E Q Q S S S S S S S S Q H.
------------------------|----------------------------|---------------|
------------------------|----------------------------|---------------|
------------------------|----------------------------|---------------|
--0--0-------1--1-------|--0----L-0-0-0-2-0-0-0-3----|--L------------|


Q S S S S S S S S Q H. Q S S S S S S S S Q
----------------------------|---------------|----------------------------|
----------------------------|---------------|----------------------------|
--3----L-0-0-0-2-0-0-0-0----|--L------------|--5----L-------3-------2----|
----------------------------|---------------|---------3-3-3---3-3-3------|


Q Q S S S S S S S S Q H E E Q E E Q
-------|----------------------------|-----------|------------------------|
-------|----------------------------|-----------|------------------------|
--L----|--7----L-------5-------3----|--L--------|------------------------|
-------|---------0-0-0---0-0-0------|-----------|--0--0-------1--1-------|


Q S S S S S S S S Q H. E E Q E E Q
----------------------------|---------------|------------------------|
----------------------------|---------------|------------------------|
-----------------------3----|--L------------|------------------------|
--0----L-0-0-0-2-0-0-0------|---------------|--0--0-------1--1-------|


S S S S S S S S S S S S S S S S S S S S S S S S S S S S S S E
----------------------------------|---------------------------------|
----------------------------------|---------------------------------|
------2-----3-----4-----3-----2-2-|------2-----3-----4-----3-----2--|
--0-1---0-1---0-1---0-1---0-1-----|--0-1---0-1---0-1---0-1---0-1----|


S S S S S S S S S S S S S S S S S S S S S S S S S S S S S S S S
----------------------------------|----------------------------------|
----------------------------------|----------------------------------|
------2-----3-----4-----3-----2-2-|------2-----3---------------------|
--0-1---0-1---0-1---0-1---0-1-----|--0-1---0-1---0-1-3-2-0-3-2-0-3-2-|


S S S S S S S S S S S S S S S S S S S S S S S S
------------------||-----------------------------------|
------------------||*----------------------------------|
------------------||*----------------------------------|
--3-2-0-3-2-0-3-2-||---0-0-0-0-0-0-0-0-0-3-5-0-6-5-3-5-|


S S S S S S S S S T S. T S. 4x S S S S S S S S S S S S S S S S
-------------------------------||-----------------------------------|
------------------------------*||*----------------------------------|
------------------------------*||*--------------------0-2---3-2-0-2-|
--0-0-0-0-0-0-0-0-0-3-5--3-5---||---2-2-2-2-2-2-2-2-2---------------|


S S S S S S S S S T S. T S. S S S S S S S S
-------------------------------||------------------|
------------------------------*||------------------|
--------------------0-2--0-2--*||--2-2-2-2-2-2-2-2-|
--2-2-2-2-2-2-2-2-2------------||------------------|


S S E E E S S S S S E. S S S S E E S S S S E E
|------------------------------|------------------------------|
|*-------------------9-5---5---|------------------------------|
|*--7-7----5--7----x-----9-----|------------------------6-----|
|------------------------------|--8-8-8-8-8--7--8-8-8-8----7--|


S S E E E S S S S S E. S S S S E E S S S S E E
-----------------------------|-------------------------------||
-------------------9-5---5---|------------------------------*||
--7-7----5--7----x-----9-----|------------------------6-----*||
-----------------------------|--8-8-8-8-8--7--8-8-8-8----7---||


S S S S E E S S S S S S S S E E Q E E Q
--------------------------------|------------------------|
--------------------------------|------------------------|
----------------9-7-6---6-------|------------------------|
--8-8-8-8-8--7------------8-7---|--0--0-------1--1-------|


Q S S S S S S S S Q H. Q S S S S S S S S Q
----------------------------|---------------|----------------------------|
----------------------------|---------------|----------------------------|
----------------------------|---------------|--3----L-0-0-0-2-0-0-0-0----|
--0----L-0-0-0-2-0-0-0-3----|--L------------|----------------------------|


H. Q S S S S S S S S Q Q
---------------|----------------------------|-------|
---------------|----------------------------|-------|
--L------------|--5----L-------3-------2----|--L----|
---------------|---------3-3-3---3-3-3------|-------|


Q S S S S S S S S Q H E E Q E E Q
----------------------------|-----------|------------------------|
----------------------------|-----------|------------------------|
--7----L-------5-------3----|--L--------|------------------------|
---------0-0-0---0-0-0------|-----------|--0--0-------1--1-------|


Q S S S S S S S S Q H. E E Q E E Q
----------------------------|---------------|------------------------|
----------------------------|---------------|------------------------|
-----------------------3----|--L------------|------------------------|
--0----L-0-0-0-2-0-0-0------|---------------|--0--0-------1--1-------|


W H. H H H H
-------------------|---------------|--------------------|--------------------|
-------------------|---------------|-----------0--------|--L-----------------|
-------------------|---------------|--------------------|-----------3--------|
-------------------|---------------|--0-----------------|--------------------|


H Q. E Q. E Q. E H H
---------------------|----------------------|--------------------|
---------------------|----------------------|-----------0--------|
--L--------0------0--|--2------2--6---------|--------------------|
---------------------|-------------------3--|--0-----------------|


H H H Q. E Q. E Q. E
--------------------|---------------------|----------------------|
--L-----------------|---------------------|----------------------|
-----------3--------|--L--------0------0--|--2------2--6---------|
--------------------|---------------------|-------------------3--|


H H H H H Q. E
--------------------|--------------------|---------------------|
-----------0--------|--L-----------------|---------------------|
--------------------|-----------3--------|--L--------0------0--|
--0-----------------|--------------------|---------------------|


Q. E Q. E H H H H
----------------------|--------------------|--------------------|
----------------------|-----------0--------|--L-----------------|
--2------2--6---------|--------------------|-----------3--------|
-------------------3--|--0-----------------|--------------------|


H Q. E Q. E Q. E H H
---------------------|----------------------|--------------------|
---------------------|----------------------|-----------0--------|
--L--------0------0--|--2------2--6---------|--------------------|
---------------------|-------------------3--|--0-----------------|


H H H Q. E Q. E Q. E
--------------------|---------------------|----------------------|
--L-----------------|---------------------|----------------------|
-----------3--------|--L--------0------0--|--2------2--6---------|
--------------------|---------------------|-------------------3--|


H H H H H Q. E
--------------------|--------------------|---------------------|
-----------0--------|--L-----------------|---------------------|
--------------------|-----------3--------|--L--------0------0--|
--0-----------------|--------------------|---------------------|


Q. E Q. E H H H H
----------------------|--------------------|--------------------|
----------------------|-----------0--------|--L-----------------|
--2------2--6---------|--------------------|-----------3--------|
-------------------3--|--0-----------------|--------------------|


H Q. E Q. E Q. E H H
---------------------|----------------------|--------------------|
---------------------|----------------------|-----------0--------|
--L--------0------0--|--2------2--6---------|--------------------|
---------------------|-------------------3--|--0-----------------|


H H H Q. E Q. E Q. E
--------------------|---------------------|----------------------|
--L-----------------|---------------------|----------------------|
-----------3--------|--L--------0------0--|--2------2--6---------|
--------------------|---------------------|-------------------3--|


H H H H H Q. E
|---------------------|--------------------|---------------------|
|*-----------0--------|--L-----------------|---------------------|
|*--------------------|-----------3--------|--L--------0------0--|
|---0-----------------|--------------------|---------------------|


Q. E Q. E E E E E E E E E E E E E E E E E
-----------------------||--------------------------|--------------------------|
----------------------*||--------------------------|--------------------------|
--2------2--6---------*||--------------------------|--------------------------|
-------------------3---||--0--0--0--0--0--0--0--0--|--0--0--0--0--0--0--0--0--|


E E E E E E E S S E E E E E E E E
|----------------------------|--------------------------|
|*---------------------------|--------------------------|
|*-----------------------4-4-|-----------------------4--|
|---2--2--3--2--2--2--3------|--2--2--3--2--2--2--3-----|


E E E E E E E S S E E E E E E E E
---------------------------|---------------------------||
---------------------------|--------------------------*||
-----------------------4-4-|-----------------------4--*||
--2--2--3--2--2--2--3------|--2--2--3--2--2--2--2------||


E E E E E E E S S E E E E E E E E
---------------------------|--------------------------|
---------------------------|--------------------------|
-----------------------4-4-|-----------------------4--|
--2--2--3--2--2--2--3------|--2--2--3--2--2--2--3-----|


E E E E E E E S S E E E E E E E E W
---------------------------|--------------------------|-------------------|
---------------------------|--------------------------|-------------------|
-----------------------4-4-|--------------------------|-------------------|
--2--2--3--2--2--2--3------|--2--2--3--2--2--2--3--2--|--3----------------|


W S S S S S S S S S S S S S S S S
-------------------|----------------------------------|
-------------------|----------------------------------|
-------------------|----------------------------------|
--2----------------|--0-0-0-0-0-0-0-0-0-3-5-0-6-5-3-5-|


S S S S S S S S S T S. T S. S S S S S S S S S S S S S S S S
------------------------------|----------------------------------|
------------------------------|----------------------------------|
------------------------------|----------------------------------|
--0-0-0-0-0-0-0-0-0-3-5--3-5--|--0-0-0-0-0-0-0-0-0-3-5-0-6-5-3-5-|


S S S S S S S S S T S. T S. S S S S S S S S S S S S S S S S
------------------------------|----------------------------------|
------------------------------|----------------------------------|
------------------------------|----------------------------------|
--0-0-0-0-0-0-0-0-0-3-5--3-5--|--0-0-0-0-0-0-0-0-0-3-5-0-6-5-3-5-|


S S S S S S S S S T S. T S. S S S S S S S S S S S S S S S S
------------------------------|----------------------------------|
------------------------------|----------------------------------|
------------------------------|----------------------------------|
--0-0-0-0-0-0-0-0-0-3-5--3-5--|--0-0-0-0-0-0-0-0-0-3-5-0-6-5-3-5-|


S S S S S S S S S T S. T S. S S S S S S S S S S S S S S S S
------------------------------|----------------------------------|
------------------------------|----------------------------------|
------------------------------|--------------------0-2---3-2-0-2-|
--0-0-0-0-0-0-0-0-0-3-5--3-5--|--2-2-2-2-2-2-2-2-2---------------|


S S S S S S S S S T S. T S. S S S S S S S S S S S S S S S S
------------------------------|----------------------------------|
------------------------------|----------------------------------|
--------------------0-2--0-2--|--------------------0-2---3-2-0-2-|
--2-2-2-2-2-2-2-2-2-----------|--2-2-2-2-2-2-2-2-2---------------|


S S S S S S S S S T S. T S. S S S S S S S S
------------------------------|------------------|
------------------------------|------------------|
--------------------0-2--0-2--|--2-2-2-2-2-2-2-2-|
--2-2-2-2-2-2-2-2-2-----------|------------------|


S S S S S S S S S S S S S S S S S S S S S S S S S S S S S S E
----------------------------------|---------------------------------|
----------------------------------|---------------------------------|
------------------------------2-2-|------------------------------2--|
--0-0-1-0-0-1-0-0-1-0-0-1-0-0-----|--0-0-1-0-0-1-0-0-1-0-0-1-0-0----|


S S S S S S S S S S S S S S S S S S S S S S S S S S S S S S E
----------------------------------|---------------------------------|
----------------------------------|---------------------------------|
------------------------------2-2-|------------------------------2--|
--0-0-1-0-0-1-0-0-1-0-0-1-0-0-----|--0-0-1-0-0-1-0-0-1-0-0-1-0-0----|


S S S S S S S S S S S S S S S S S S E. E T T
------------------|---------------------------------|
------------------|----------------2-4-5------------|
------------------|----------2-3-5-------3---L--3-3-|
--0-0-0-0-0-0-0-0-|--0-2-3-5------------------------|


S S S S S S S S S S S S S S S T T S S S S S S S S S S E. E T T
------------------------------------|---------------------------------|
------------------------------------|----------------2-4-5------------|
--3-2-3-5-3-2-----------------------|----------2-3-5-------3---L--3-3-|
--------------3-2-0-0-0-0-0-0-0-0-0-|--0-2-3-5------------------------|


S S S S S S S S S S S S S S S T T S S S S S S S S S S E. E T T
------------------------------------|---------------------------------|
------------------------------------|----------------2-4-5------------|
--3-2-3-5-3-2-----------------------|----------2-3-5-------3---L--3-3-|
--------------3-2-0-0-0-0-0-0-0-0-0-|--0-2-3-5------------------------|


S S S S S S S S S S S S S S S T T S S S S S S S S S S E. E T T
------------------------------------|---------------------------------|
------------------------------------|----------------2-4-5------------|
--3-2-3-5-3-2-----------------------|----------2-3-5-------3---L--3-3-|
--------------3-2-0-0-0-0-0-0-0-0-0-|--0-2-3-5------------------------|


S S S S S S S S Q. S T T S S S S S S S S S H. E.
-------------------------------|------------------||----------------------|
-------------------------------|------------------||*---------------------|
--3-2-3-5-3-2--------------3-3-|--3-2-3-5-3-2-----||*---------------------|
--------------3-2-0------L-----|--------------3-2-||---0------------------|


H S S S S S S S S S S S S S S S S
----------------------------||------------------|
---------------------------*||------------------|
---------------------------*||------------------|
-----------3-2-0-3-2-0-3-2--||--3-2-0-3-2-0-3-2-|


S S S S S S S S S S S S S S S S S S S S S S S S S T S. T S. 4x
|-----------------------------------|-------------------------------||
|*----------------------------------|------------------------------*||
|*----------------------------------|------------------------------*||
|---0-0-0-0-0-0-0-0-0-3-5-0-6-5-3-5-|--0-0-0-0-0-0-0-0-0-3-5--3-5---||


S S S S S S S S S S S S S S S S S S S S S S S S S T S. T S.
-----------------------------------|-------------------------------||
*----------------------------------|------------------------------*||
*--------------------0-2---3-2-0-2-|--------------------0-2--0-2--*||
---2-2-2-2-2-2-2-2-2---------------|--2-2-2-2-2-2-2-2-2------------||


S S S S S S S S S S E E E S S S S S E.
------------------||------------------------------|
------------------||*-------------------9-5---5---|
--2-2-2-2-2-2-2-2-||*--7-7----5--7----x-----9-----|
------------------||------------------------------|


S S S S E E S S S S E E S S E E E S S S S S E.
------------------------------|-----------------------------|
------------------------------|-------------------9-5---5---|
------------------------6-----|--7-7----5--7----x-----9-----|
--8-8-8-8-8--7--8-8-8-8----7--|-----------------------------|


S S S S E E S S S S E E S S S S E E S S S S S S S S
-------------------------------||--------------------------------|
------------------------------*||--------------------------------|
------------------------6-----*||----------------9-7-6---6-------|
--8-8-8-8-8--7--8-8-8-8----7---||--8-8-8-8-8--7------------8-7---|


E E Q E E Q Q S S S S S S S S Q H.
------------------------|----------------------------|---------------|
------------------------|----------------------------|---------------|
------------------------|----------------------------|---------------|
--0--0-------1--1-------|--0----L-0-0-0-2-0-0-0-3----|--L------------|


Q S S S S S S S S Q H. Q S S S S S S S S Q
----------------------------|---------------|----------------------------|
----------------------------|---------------|----------------------------|
--3----L-0-0-0-2-0-0-0-0----|--L------------|--5----L-------3-------2----|
----------------------------|---------------|---------3-3-3---3-3-3------|


Q Q S S S S S S S S Q H E E Q E E Q
-------|----------------------------|-----------|------------------------|
-------|----------------------------|-----------|------------------------|
--L----|--7----L-------5-------3----|--L--------|------------------------|
-------|---------0-0-0---0-0-0------|-----------|--0--0-------1--1-------|


Q S S S S S S S S Q H. E E Q E E Q
----------------------------|---------------|------------------------|
----------------------------|---------------|------------------------|
-----------------------3----|--L------------|------------------------|
--0----L-0-0-0-2-0-0-0------|---------------|--0--0-------1--1-------|


S S S S S S S S S S S S S S S S S S S S S S S S S T S. T S. 4x
|-----------------------------------|-------------------------------||
|*----------------------------------|------------------------------*||
|*----------------------------------|------------------------------*||
|---0-0-0-0-0-0-0-0-0-3-5-0-6-5-3-5-|--0-0-0-0-0-0-0-0-0-3-5--3-5---||


H S S S S S S S S W W
-----------|------------------|-------------------|-------------------|
-----------|------------------|-------------------|-------------------|
-----------|------------------|-------------------|-------------------|
-----------|--3-2-0-3-2-0-3-2-|--0----------------|--L----------------|


W W W
-------------------|-------------------|-------------------|
-------------------|-------------------|-------------------|
-------------------|-------------------|-------------------|
--L----------------|--L----------------|--L----------------|


W
-------------------||
-------------------||
-------------------||
-------------------||




Duration Legend
---------------
W - whole
H - half
Q - quarter
E - 8th
S - 16th
T - 32nd
X - 64th
. - note dotted
|-n-| - n-tuplets


Tablature Legend
----------------
L - tied note
x - note
g - grace note
(n) - ghost note
> - accentuded note
NH - natural harmonic
AH - artificial harmonic
TH - tapped harmonic
SH - semi harmonic
PH - pitch harmonic
h - hammer on
p - pull off
b - bend
br - bendRelease
pb - preBend
pbr - preBendRelease
brb - bendReleaseBend
n/ - tremolo bar dip
n - tremolo bar dive
-/n - tremolo bar Release up
/n - tremolo bar inverted dip
/n - tremolo bar return
-n - tremolo bar Release down
S - shift slide
s - legato slide
/ - slide into from below or out of upwards
- slide into from above or out of downwards
~ - vibrato
W - wide vibrato
tr - trill
TP - tremolo picking
T - tapping
S - slap
P - pop
< - fade in
^ - brush up
v - brush down



Get this song at amazon.com      Ebay     Ringtones Ringtones  


Learn to play: Songwriting, Piano, Harmonica, Guitar
More Metallica lyrics available at Muzikum

Related Metallica Bass Tabs

Four Horsemen bass
Master Of Puppets(improved) bass
Black (album) bass
Cliff Em All Bellz bass
For Whom The Bell Tolls (guitar) bass
Cop Killer bass
Merciful Fate bass
Prince Charming bass
Am I Evil bass
Live Shit bass
Turn The Page bass
Reef bass
Metal Militia bass
89' Seattle Bass Solo bass
Unforgiven 2 bass
Its Electric bass
The Four Horsemen (live) bass
Loverman bass
Enter Sandman bass
Orion Bass Solo bass


Guitar Tabs









All tabs are property and copyright of their owners. All tabs provided for educational purposes only. Privacy Policy, DMCA