Metallica

Master Of Puppets Bass Tab!!!!! Bass Tabs



More from Metallica

Metallica Tabs
Metallica Chords
Metallica Bass
Metallica Lyrics




NORMAL TUNING – E A D G

Intro pt.1
--------------------------------------------------------
--------------------------------------------------------
----5-4-3----------------------------------------------
--0----------------------------------------------------- X1

intro pt.2
--------------------------------------------------------
--------------------------------------------------------
-------5-4-3-------------------------------------------
--0-0--------------------------------------------------- X3

intro pt.3
---------------------------------------------------------
---------------------------------------------------------
---------------------------------------------------------
--3-2-0-3---------------------------------------------- X2

intro pt.4
--------------------------------------------------------------------
--------------------------------------------------------------------
----------------------2--------------------3--------------------4-
--0-0-0-0-0-0-0-1---0-0-0-0-0-0-0-1---0-0-0-0-0-0-0-1---

INTRO PT.3 X1
INTRO PT.4 X1
INTRO PT.3 X2

Verse
--------------------------------------------------------
--------------------------------------------------------
--------------------------------------------------------
--0-0-0-0-0-0-0-0-3-5-6---0-0-0-0-0-0-0-0-6-5- X6

pre-chorus
--------------------------------------------------------
--------------------------------------------------------
--7--------7-9-----------------------------------------
----0-0-0------7-7-7-7-7---------------------------- X4

Chorus
-----------------------------------------------------------------------------------
-----------------------------------------------------------------------------------
-----------------------------------------------------------------------------------
--7-7-5-5---7-5-7---7-5-7---7-5-7---7-5-7---7-7-5-5---7-5-7---7-7-5-5-

INTRO PT. 4 X1
INTRO PT. 3 X2
VERSE X6
PRE-CHORUS X4
CHORUS X1
(master, master, master, master, master……..)

instrumental pt.1 (can be done in time from start or only in time
with the drums when they kick in. If only with drums play only once)
----------------------------------------------------------------
----0-----------------------------------------------------------
------3-0-2-0--------------------------------------------------
--0------------------------------------------------------------- X2

instrumental pt.2 (this my fave part of the song to play)
-------------------------------------------------------------------------------------------
-------------------------------------------------------------------------------------------
--7-----7---5-5-5-5--0-----5-5---3-3-3-3-4---3-3---1-1-1-1-2-2-2-2---6-6-6-6-
----9-9--------------------5--------------------3---------------------------------------- X6

INSTRUMENTAL PT.1 X2

Instrumental pt. 3
--------------------------------------------------------------
--------------------------------------------------------------
--------------------------------------------------------------
--1-1-1-1-1-1-1-1-1-1-1-1-1-1-1-1---------------------

instrumental pt. 4
--------------------------------------------------------------
--------------------------------------------------------------
--------------------------------------------------------------
--1-1-1-1-1-1-1-3----------------------------------------- X11

Pre- final solo
--------------------------------------------------------------
--------------------------------------------------------------
--------------------------------------------------------------
--1-----------3----------------------------------------------

VERSE X6
INSTRUMENTAL PT. 4 X4
BREAK FOR WHAT WOULD BE INTRO PT. 4
INTRO PT. 3 X1
BREAK FOR WHAT WOULD BE INTRO PT.4
INTRO PT 3 X2
VERSE X6
PRE-CHORUS X4
CHORUS X1
VERSE WITH SLOWER TEMPO X4


End
--------------------------------------------------------------
--------------------------------------------------------------
--------------------------------------------------------------
--3--3--3---------------------------------------------------



Get this song at amazon.com      Ebay     Ringtones Ringtones  


Learn to play: Songwriting, Piano, Harmonica, Guitar
More Metallica lyrics available at Muzikum

Related Metallica Bass Tabs

For Whom The Bell Tolls(improved) bass
Mama Said (country) bass
The Outlaw Thorn bass
Whiplash bass
Thorn Within bass
Anesthesia (pulling Teeth) bass
My Friend Of Misery (solo) bass
Live Shit bass
Orion bass
Wherever I May Roam bass
The Unforgiven bass
Devils Dance bass
Pulling Teeth (anesthesia) bass
For Whom The Bell Tolls -except Correct bass
Cliff Memorial bass
Ain't My Bitch bass
Astronomy bass
Am I Evil bass
The Black Album(full) bass
Prince Charming bass


Guitar Tabs









All tabs are property and copyright of their owners. All tabs provided for educational purposes only. Privacy Policy, DMCA