Metallica

Last Caress Bass Tabs



More from Metallica

Metallica Tabs
Metallica Chords
Metallica Bass
Metallica Lyrics



Song: Last Caress - Green Hell
Band: MetallicA
Album: Garage Inc. (original Glenn Danzing)

Transcribed By Eros Fratini (e-r-o-s@libero.it)
Normal Tune
------------------------------ Bass Tab -------------------------------
Last Caress

Time 4/4
beat 185

Intro:
|---------|
|--Drums--|
|----x2---|
|---------|

Verse 1:
|--------------------------------|--------------------------------|
|--------------------------------|--------------------------------|
|--------------------------------|--------------------------------|
|--------------------------------|-----------------1-------3------|

|--------------------------------|--------------------------------|
|--------------------------------|--------------------------------|
|--------------------------------|--------------------------------|
|--------------------------------|-----------------1-------3------|

|--------------------------------|--------------------------------|
|--------------------------------|--------------------------------|
|--------------------------------|-5------------------------------|
|-1------------------------------|--------------------------------|

|--------------------------------|--------------------------------|
|--------------------------------|--------------------------------|
|-3-------3---3---3---3---3---3--|-3---3---3---3------------------|
|--------------------------------|-----------------1-------3------|

|--------------------------------|--------------------------------|
|--------------------------------|--------------------------------|
|-3-------3---3---3---3---3---3--|-3---3---3---3------------------|
|--------------------------------|-----------------1-------3------|

Verse 2, 3, 4:
|--------------------------------|--------------------------------|
|*-------------------------------|--------------------------------|
|*3-------3---3---3---3---3---3--|-3---3---3---3------------------|
|--------------------------------|-----------------1-------3------|

|--------------------------------|--------------------------------|
|--------------------------------|--------------------------------|
|-3-------3---3---3---3---3---3--|-3---3---3---3------------------|
|--------------------------------|-----------------1-------3------|

|--------------------------------|--------------------------------|
|--------------------------------|--------------------------------|
|--------------------------------|-5-------5---5-------5---7---5--|
|-1-------1---1-------1---1---5--|--------------------------------|

|--------------------------------|--------------------------------|
|--------------------------------|--------------------------------|
|-3-------3---3-------3---3---3--|-3---3---3---3---5---3----------|
|--------------------------------|-------------------------5---0--|

Chorus:
|--------------------------------|--------------------------------|
|--------------------------------|--------------------------------|
|--------------------------------|--------------------------------|
|-1-------1---1-------1---1---1--|-3-------3---3-------3---5---7--|

|--------------------------------|--------------------------------|
|--------------------------------|--------------------------------|
|--------------------------------|--------------------------------|
|-8---8---8---0---7---7---0---0--|-5---5---5---5---5---5---5---0--|

|--------------------------------|--------------------------------|
|--------------------------------|--------------------------------|
|--------------------------------|-------------------------0---2--|
|-1-------1---1-------1---1---2--|-3-------3---3-------3----------|

1. 2.
|--------------------------------|
|--------------------------------|
|-3-------3---3---3---3---3---3--|
|--------------------------------|

|Fig.1
|--------------------------------|--------------------------------|
|--------------------------------|--------------------------------|
|--------------------------------|-3-------3---3---3---3---3---3--|
|-1---1---1---3-------3---3------|--------------------------------|

end Fig.1|
|--------------------------------|
|--------------------------------|
|--------------------------------|
|-1---1---1---3-------3---3------|

3.
Repeat Fig.1 x 4 then
|--------------------------------|
|--------------------------------|
|-3------------------------------|
|--------------------------------|

|--------------------------------|
|--------------------------------|
|--------------------------------|
|----------------1-------3-------|


Green Hell

Time 4/4
beat 185

|--------------------------------|--------------------------------|
|--------------------------------|--------------------------------|
|--------------------------------|--------------------------------|
|-3---3---3---3---3---3---3---3--|-3---3---3---3---3---3---3---3--|

|--------------------------------|--------------------------------|
|--------------------------------|--------------------------------|
|--------------------------------|--------------------------------|
|-3---3---3---3---3---3---3---3--|-3---3---3---3---3---3---3---3--|

Verse 1:
|Fig.2
|--------------------------------|--------------------------------|
|--------------------------------|--------------------------------|
|--------------------------------|--------------------------------|
|-3---3---3---3---3---3---3---3--|-3---3---3---3---3---3---3---3--|

|--------------------------------|--------------------------------|
|--------------------------------|--------------------------------|
|--------------------------------|--------------------------------|
|-3---3---3---3---3---3---3---3--|-3---3---3---3---3---3---3---5--|

end Fig.2|
|--------------------------------|--------------------------------|
|--------------------------------|--------------------------------|
|-----------------6-------3------|--------------------------------|
|-6-------3----------------------|-3---3---3---3---3---3---3---0--|

|--------------------------------|--------------------------------|
|--------------------------------|--------------------------------|
|--------------------------------|--------------------------------|
|-3---3---3---3---3---3---3---3--|-3---3---3---3---3---3---3---3--|

Repeat Fig.2

Pre-Chorus:
|Fig.3 end Fig.3|
|--------------------------------|--------------------------------|
|--------------------------------|--------------------------------|
|--------------------------------|-----------------6-------3------|
|-3---3---3---3---3---3---3---3--|-6-------3----------------------|

Repeat Fig.3 x 2 1/2

|--------------------------------|--------------------------------|
|--------------------------------|--------------------------------|
|-5---5---5---5---5---5---5---5--|-5---5---5---5---5---5---5------|
|--------------------------------|-----------------------------0--|

Chorus:
|Fig.4
|--------------------------------|--------------------------------|
|--------------------------------|--------------------------------|
|--------------------------------|--------------------------------|
|-3---3---3---3---3---3---3---3--|-3---3---3---3---3---3---3---0--|

end Fig.4|
|--------------------------------|--------------------------------|
|--------------------------------|--------------------------------|
|--------------------------------|--------------------------------|
|-0---0---0---0---0---0---0---0--|-0---0---0---0---0---0---0---2--|

Repeat Fig.4 x 2

|--------------------------------|--------------------------------|
|--------------------------------|--------------------------------|
|--------------------------------|--------------------------------|
|-3---3---3---3---3---3---3---3--|-3---3---3---3---3---3---3---2--|

|--------------------------------|--------------------------------|
|--------------------------------|--------------------------------|
|--------------------------------|--------------------------------|
|-0---0---0---0---0---0---0---0--|-0---0---0---0---0---0---0---0--|

|--------------------------------|--------------------------------|
|--------------------------------|-----5---7---5------------------|
|-5---5---5---5---5---5---5---5--|-7---------------5--------------|
|--------------------------------|---------------------0--0--5--6-|

|--------------------------------|
|--------------------------------|
|-----------------6-------3------|
|-6-------3----------------------|

Pre-Chorus:

Repeat Fig.3 x 3

|--------------------------------|--------------------------------|
|--------------------------------|--------------------------------|
|--------------------------------|--------------------------------|
|-3---3---3---3---3---3---3---0--|-3---3---3---3---3---3---3---3--|

|--------------------------------|--------------------------------|
|--------------------------------|--------------------------------|
|--------------------------------|--------------------------------|
|-3---3---3---3---3---3---3---3--|-3---3---3---3---3---3---3---3--|

|--------------------------------|
|--------------------------------|
|--------------------------------|
|-3---3---3---3---3---3---3---3--|

Verse 2:
|--------------------------------|
|--------------------------------|
|--------------------------------|
|-3---3---3---3---3---3---3---3--|

|--------------------------------|--------------------------------|
|--------------------------------|--------------------------------|
|--------------------------------|--------------------------------|
|-3---3---3---3---3---3---3---3--|-3---3---3---3---3---3---3---3--|

|--------------------------------|--------------------------------|
|--------------------------------|--------------------------------|
|--------------------------------|-----------------6-------3------|
|-3---3---3---3---3---3---0---0--|-6-------3----------------------|

|--------------------------------|--------------------------------|
|--------------------------------|--------------------------------|
|--------------------------------|--------------------------------|
|-3---3---3---3---3---3---3---0--|-3---3---3---3---3---3---3---3--|

|--------------------------------|--------------------------------|
|--------------------------------|--------------------------------|
|--------------------------------|--------------------------------|
|-3---3---3---3---3---3---3---3--|-3---3---3---3---3---3---3---3--|

|--------------------------------|--------------------------------|
|--------------------------------|--------------------------------|
|--------------------------------|--------------------------------|
|-3---3---3---3---3---3---3---3--|-3---3---3---3---3---3---3---3--|

|--------------------------------|--------------------------------|
|--------------------------------|--------------------------------|
|--------------------------------|--------------------------------|
|-3---3---3---3---3---3---3---3--|-3---3---3---3---3---3---3---3--|

|--------------------------------|--------------------------------|
|--------------------------------|--------------------------------|
|--------------------------------|--------------------------------|
|-3---3---3---3---3---3---3---3--|-3---3---3---3---6---6---3---3--|

Pre-Chorus:

Repeat Fig.3 x 5

|--------------------------------|--------------------------------|
|--------------------------------|--------------------------------|
|--------------------------------|-5---5---5---5---5---5---5---5--|
|-3---3---3---3---3---3---3---3--|--------------------------------|

|--------------------------------|--------------------------------|
|--------------------------------|--------------------------------|
|-5---5---5---5------------------|--------------------------------|
|-----------------0---0---1---2--|-3------------------------------|

|--------------------------------|--------------------------------|
|--------------------------------|--------------------------------|
|--------------------------------|--------------------------------|
|--------------------------------|--------------------------------|

|--------------------------------|
|--------------------------------|
|-5------(5)--------------------|
|-3------(3)--------------------| End.

-----------------------------------------------------------------------






Get this song at amazon.com      Ebay     Ringtones Ringtones  


Learn to play: Songwriting, Piano, Harmonica, Guitar
Also available at Muzikum: Metallica - Last Caress lyrics

Related Metallica Bass Tabs

To Live Is To Die bass
Don't Tread On Me bass
The Thing That Should Not Be bass
Pulling Teeth bass
2x4 bass
Sanitarium bass
Mama Said bass
53rd&3rd bass
Jump In The Fire bass
The house that jack built bass
Damage Inc bass
Orion(instrumental) bass
For Whomb The Bels Tool bass
The Four Horsemen (live) bass
Escape bass
Harvester Of Sorrow bass
The Black Album bass
The More I See bass
Anesthesia (pulling Teeth) bass
Cool Cliff Burton Solo!! bass


Guitar Tabs









All tabs are property and copyright of their owners. All tabs provided for educational purposes only. Privacy Policy, DMCA