Metallica

Imperial March Bass Tabs



More from Metallica

Metallica Tabs
Metallica Chords
Metallica Bass
Metallica Lyrics



-------------------------------------------------------------------------------
Imperial March
-------------------------------------------------------------------------------

Tabbed By : Drex13
e-mail: edstroh@san.rr.com

Tuning:Normal

G|---------------------------------------------------------------------------|
D|-----------------------1-1-1-2---------------------------------------------|
A|----------2------2-------------2-------2------2----------------------------|
E|--4-4-4-0---4--0---4-------------3---0---4--0---4--------------------------|

G|---------------------------------------------------------------------------|
D|---------------------------------------------------------------------------|
A|--10-10-10-9-8--7p6h7--0-5--4-3--2p1h2---------2------2--------------------|
E|----------------------------------------0-3--0---4--0---4------------------|

Taken from The BassMasta -- http://www.tabs-database.com



Get this song at amazon.com      Ebay     Ringtones Ringtones  


Learn to play: Songwriting, Piano, Harmonica, Guitar
Also available at Muzikum: Metallica - Imperial March lyrics

Related Metallica Bass Tabs

Cunning Stunts: Bass/guitar Doodle bass
Loverman bass
Friend Of Mysery bass
Live Shit Mexico City Bass Solo bass
Black (album) bass
The Outlaw Torn bass
Green Hell bass
Carpe Diem Bay bass
Motorbreath (live) bass
Orion(instrumental) bass
Ain't My Bitch bass
The Unforgiven II bass
Unforgiven bass
Devils Dance bass
53rd And 3rd Ramones Cover bass
Enter Sandman(100% Correct And Improved) bass
The Black Album bass
Fade To Black (revised Version) bass
Sabbra Cadabra bass
I Disappear bass


Guitar Tabs









All tabs are property and copyright of their owners. All tabs provided for educational purposes only. Privacy Policy, DMCA