Metallica

Funeral March Of A Marionette Tabs



More from Metallica

Metallica Tabs
Metallica Chords
Metallica Bass
Metallica Lyrics



Funeral March of a Marionette
as performed by Kirk Hammett and Metallica
Live at Mexico City 1992
tab by Phil Boyle; ibzrg470@apk.net


e---------------------------------------------------
B---------------------------------------------------
G---------------------------------------------------
D--//--7-7-5-7-8-7-5---5-5-4-5-7-4-----------------5
A----------------------------------5---8-8-7-5-7-8--
E---------------------------------------------------

Rythm guitar
D--2-7--X--X--X-- -2--7--9--10----
A--0-5--X--X--X-- three times -0--5--7--8---10
E---------------- --------------8-

Lead guitar
e----------------------------------
B----------------------------------
G----7-7-7-6---6-7-9----7-7-7-6---6
D--7---------9--------7---------9--
A----------------------------------
E----------------------------------
This is the main riff, sometimes with artificial harmonics or wah.

e-------------------------------12-----9h12p9-----------
B------10----------13-----10-10----12---------9h12p9-7--
G--7-7----9--10-10----12-------------------------------7
D-------------------------------------------------------
A-------------------------------------------------------
E-------------------------------------------------------
The rising part. At the end instead of playing the sale
back down, just trill the 9-12 on the high E.


Get this song at amazon.com      Ebay     Ringtones Ringtones  


Learn to play: Songwriting, Piano, Harmonica, Guitar
More Metallica lyrics available at Muzikum

Related Metallica Tabs

Tuesday's Gone tabs
Eye Of The Beholder Intro tabs
Let It Loose tabs
Escape tabs
Seek And Destroy tabs
Anestheia tabs
My Eyes tabs
Moby Dick tabs
My Friend Of Misery tabs
Leper Messiah Intro tabs
Dirty Windo tabs
In The Hall Of The Mountain King tabs
Am I Evil 3 tabs
Better Than You tabs
Welcome Home tabs
Through The Never tabs
Whiskey In Tha Jar tabs
Aint My Bitch3 tabs
Wasting My Hate tabs
St Anger Album tabs


Guitar Tabs









All tabs are property and copyright of their owners. All tabs provided for educational purposes only. Privacy Policy, DMCA