Metallica

For Whom The Bell Tolls (guitar) Bass Tabs



More from Metallica

Metallica Tabs
Metallica Chords
Metallica Bass
Metallica Lyrics



Standard tuning
I can not sign in on tabs-database.com so I put it on here.

E----------------------------------------------------------------
B--0-------0-----------------------------------------------------
G----------------------------------------------------------------
D-------------4--4--4--4(2)---12--11--10--9---------12----------- 8x
A-------------4--4--4--4(2)------------------10--9---------------
E-------------2--2--2--2(0)-----------------------------10(9)---

E----------------------------------------------------------------
B----------------------------------------------------------------
G----------------------------------------------------------------
D--4--4(2)----4--4(2)----4--4(2)----4--4(2)----4--4----------
A-4--4(2)----4--4(2)----4--4(2)----4--4(2)----4--4----------
E-2--2(0)----2--2(0)----2--2(0)----2--2(0)----2--2----------


E----------------------------------------------------------------
B----------------------------------------------------------------
G--------------------------------3-------------------------------
D--2-5-4-3-2-5-4-3-2-5-4-3-2-4-5-3------------------------------- 3x
A--2-5-4-3-2-5-4-3-2-5-4-3-2-4-5-1-------------------------------
E--0-3-2-1-0-3-2-1-0-3-2-1-0-2-3---------------------------------

E----------------------------------------------------------------
B--8-----7--------7--8----7--------7-----------------------------
G-----9-----7--9-------9-----7--9--------------------------------
D----------------------------------------------------------------
A----------------------------------------------------------------
E----------------------------------------------------------------

E----------------------------------------------------------------
B----------------------------------------------------------------
G----------------------------------------------------------------
D-----------------2-----------3--------------------2------------- 2x
A--------5--------0--------5--1--4--------5--------0-------5-----
E--0-0-0-3--0-0-0----0-0-0-3-----2--0-0-0-3--0-0-0---0-0-0-3-0-(0)


E----------------------------------------------------------------
B----------------------------------------------------------------
G----------------------------------------------------------------
D(2)-----x---(2)--------(5)----(10)--(7)------------------------ 2x
A(2)-----x---(2)--------(5)----(10)--(7)------------------------
E(0)-----x---(0)--------(3)----(-8)--(5)------------------------

E----------------------------------------------------------------
B----------------------------------------------------------------
G----------------------------------------------------------------
D-----------------2-----------3--------------------2------------- 2x
A--------5--------0--------5--1--4--------5--------0-------5-----
E--0-0-0-3--0-0-0----0-0-0-3-----2--0-0-0-3--0-0-0---0-0-0-3-0-(0)




E-------------------------------------------|---------------------
B-------------------------------------------|---------------------
G--12--9--11----9---------------------------|---------------------
D------------12----11--12--9--11-----9--10--|--(4)----------------
A---------------------------------12--------|--(2)----------------
E-------------------------------------------|---------------------


E----------------------------------------------------------------
B----------------------------------------------------------------
G----------------------------------------------------------------
D(2)-----x---(2)--------(5)----(10)--(7)------------------------ 2x
A(2)-----x---(2)--------(5)----(10)--(7)------------------------
E(0)-----x---(0)--------(3)----(-8)--(5)------------------------



E----------------------------------------------------------------
B----------------------------------------------------------------
G----------------------------------------------------------------
D-----------------2-----------3--------------------2------------- 2x
A--------5--------0--------5--1--4--------5--------0-------5-----
E--0-0-0-3--0-0-0----0-0-0-3-----2--0-0-0-3--0-0-0---0-0-0-3-0-(0)


E----------------------------------------------------------------
B----------------------------------------------------------------
G----------------------------------------------------------------
D--4--4-(2)---4-4-4--4(2)------------------------------------- 10x
A--4--4(2)---4-4-4--4-(2)-------------------------------------
E--2--2(0)---2-2-2--2(0)-------------------------------------



Get this song at amazon.com      Ebay     Ringtones Ringtones  


Learn to play: Songwriting, Piano, Harmonica, Guitar
More Metallica lyrics available at Muzikum

Related Metallica Bass Tabs

Green Hell bass
Pulling bass
The Shortest Straw bass
The More I See bass
Motorbreath bass
Welcome Home/ Sanitarium bass
Anesthesis(pulling Teeth) bass
Escape bass
We Did It Again bass
Orion (bass Solos) bass
My Friend Of Misery bass
The Outlaw Thorn bass
Trapped Under Ice bass
Helpless bass
Black Album Tab bass
Where The Wild Things Are bass
Enter Sandman(100% Correct And Improved) bass
Low Mans Lyric bass
Fade To Black bass
Devils Dance bass


Guitar Tabs









All tabs are property and copyright of their owners. All tabs provided for educational purposes only. Privacy Policy, DMCA