Metallica

Fight Fire With Fire Bass Tabs



More from Metallica

Metallica Tabs
Metallica Chords
Metallica Bass
Metallica Lyrics

Album: Ride The Lightning
Tabbed By: Nick Prosper May 26, 2004
	
Email: nick_prosper@nf.sympatico.ca
Equipment:Schecter Diamond Series 5 String Elite Bass w/EMG-HZ Active Pickups
1 X 15" Peavey Cab, 2 X 10" Peavey Cab, Peavey Classic series 120/120 Power Tube Amp
Trace Elliot GP12-SMX 12 Band Graphic EQ Pre-Amplification System.

This is the "Fight Fire With Fire" bass tab which is off the Ride The Lightning album. 
I play this song with a pick as I do with every MetallicA song. This tab may not be 
exactly how it is played from a book you may buy for Metallica bass tabs. But this is 
how I play it. If you would like to have the sound files which I recorded for this 
song which is only bass, please feel free to email me.

If You have any suggestions/changes or coments, please feel free email them on as well.


Tuning : Standard
 
[Intro]    
|-------||------||---------------||----------------|
|-------||------||---------------||----------------|
|-------||-REST-||---R---R-------||---R---R--------|
|---0---||------||-3---2---3-2-1-||-3---2---3-2-1--|

|----------------------------------------------------------------|
|----------------------------------------------------------------|
|----------------------------------------------------------------|
|-0000-3-0000-2-0000-3-00-2-00-1--0000-3-0000-2-0000-3-00-2-00-1-|

|----------------------------------------------------------------|
|----------------------------------------------------------------|
|----------------------------------------------------------------|
|-0000-3-0000-2-0000-3-00-2-00-1--0000-3-0000-2-0000-3-00-2-00-1-|

|--------------------------------------------|
|--------------------------------------------|
|--------------------------------------------|
|--00-3-5p0-00-3-00-23-00-3-5p0-00-3-00-2-2--|

|--------------------------------------------|
|--------------------------------------------|
|--------------------------------------------|
|--00-3-5p0-00-3-00-23-00-3-5p0-00-3-00-2-2--|

|--------------------------------------------|
|--------------------------------------------|
|--------------------------------------------|
|--00-3-5p0-00-3-00-23-00-3-5p0-00-3-00-2-2--|

|------------------------------------------|
|------------------------------------------|
|------------------------------------------|
|--00-3-5p0-00-3-00-23-00-3-5p0-00-3-00-2--|

|----------------------------------------------------------------|
|----------------------------------------------------------------|
|----------------------------------------------------------------|
|-0000-3-0000-2-0000-3-00-2-00-1--0000-3-0000-2-0000-3-00-2-00-1-|

|----------------------------------------------------------------|
|----------------------------------------------------------------|
|----------------------------------------------------------------|
|-0000-3-0000-2-0000-3-00-2-00-1--0000-3-0000-2-0000-3-00-2-00-1-|

|--------------------------------------------|
|--------------------------------------------|
|--------------------------------------------|
|--00-3-5p0-00-3-00-23-00-3-5p0-00-3-00-2-2--|

|------------------------------------------|
|------------------------------------------|
|------------------------------------------|
|--00-3-5p0-00-3-00-23-00-3-5p0-00-3-00-2--|

|----------------------------------------------------------------|
|----------------------------------------------------------------|
|----------------------------------------------------------------|
|-0000-3-0000-2-0000-3-00-2-00-1--0000-3-0000-2-0000-3-00-2-00-1-|

|----------------------------------------------------------------|
|----------------------------------------------------------------|
|----------------------------------------------------------------|
|-0000-3-0000-2-0000-3-00-2-00-1--0000-3-0000-2-0000-3-00-2-00-1-|

|--------------------------------------------|
|--------------------------------------------|
|--------------------------------------------|
|--00-3-5p0-00-3-00-23-00-3-5p0-00-3-00-2-2--|

|------------------------------------------|
|------------------------------------------|
|------------------------------------------|
|--00-3-5p0-00-3-00-23-00-3-5p0-00-3-00-2--|

|-----------------------------------------------------|
|-----------------------------------------------------|
|-----------------------------------------------------|
|-0-3-0-5-7-6-666-666-666-6-0-3-0-5-7-6-666-666-666-6-|

|----------------------------------------|
|----------------------------------------|
|----------------------------------------|
|-0-3-0-5-7-6-666-666-666-6-0-3-0-5-7-6--|

|----------------------------------------------------------------|
|----------------------------------------------------------------|
|----------------------------------------------------------------|
|-0000-3-0000-2-0000-3-00-2-00-1--0000-3-0000-2-0000-3-00-2-00-1-|

|----------------------------------------------------------------|
|----------------------------------------------------------------|
|----------------------------------------------------------------|
|-0000-3-0000-2-0000-3-00-2-00-1--0000-3-0000-2-0000-3-00-2-00-1-|

|----------------------------------------------------------------|
|----------------------------------------------------------------|
|----------------------------------------------------------------|
|-0000-3-0000-2-0000-3-00-2-00-1--0000-3-0000-2-0000-3-00-2-00-1-|

|----------------------------------------------------------------|
|----------------------------------------------------------------|
|----------------------------------------------------------------|
|-0000-3-0000-2-0000-3-00-2-00-1--0000-3-0000-2-0000-3-00-2-00-1-|

|--------------------------------------------|
|--------------------------------------------|
|--------------------------------------------|
|--00-3-5p0-00-3-00-23-00-3-5p0-00-3-00-2-2--|

|------------------------------------------|
|------------------------------------------|
|------------------------------------------|
|--00-3-5p0-00-3-00-23-00-3-5p0-00-3-00-2--|

|-----------------------------------------------------|
|-----------------------------------------------------|
|-----------------------------------------------------|
|-0-3-0-5-7-6-666-666-666-6-0-3-0-5-7-6-666-666-666-6-|

|----------------------------------------|
|----------------------------------------|
|----------------------------------------|
|-0-3-0-5-7-6-666-666-666-6-0-3-0-5-7-6--|

|-------------------|---------------|---------|
|-------------------|---------------|---------|
|---5--3--2--0(0)---|----0--2--3(3)-|---------|
|-------------------|-3-------------|-3-2-1-0-|

|-----------------------------------------------------|
|-----------------------------------------------------|
|-----------------------------------------------------|
|-000-0-000-0-000-0-000-0-000-0-000-0-000-0-000-0-000-|

|-------------------------------------------|
|-------------------------------------------|
|-------------------------------------------|
|-555-5-555-5-555-5-333-3-333-3-222-2-222-2-|

|-----------------------------------------------------|
|-----------------------------------------------------|
|-----------------------------------------------------|
|-000-0-000-0-000-0-000-0-000-0-000-0-000-0-000-0-000-|

|-------------------------------------------|
|-------------------------------------------|
|-------------------------------------------|
|-555-5-555-5-555-5-333-3-333-3-222-2-222-2-|

|----------------------------------------------------|
|----------------------------------------------------|
|----------------------------------------------------|
|-0--2-3p0-2-3p0-2-3p0-2-3p0-2-3p0-2-3p0-2-3p0-2-3p0-|

|-----------------------------------------------------|
|-----------------------------------------------------|
|-----------------------------------------------------|
|-000-0-000-0-000-0-000-0-000-0-000-0-000-0-000-0-000-|

|-------------------------------------------|
|-------------------------------------------|
|-------------------------------------------|
|-555-5-555-5-555-5-333-3-333-3-222-2-222-2-|

|-----------------------------------------------------|
|-----------------------------------------------------|
|-----------------------------------------------------|
|-000-0-000-0-000-0-000-0-000-0-000-0-000-0-000-0-000-|

|-------------------------------------------|
|-------------------------------------------|
|-------------------------------------------|
|-555-5-555-5-555-5-333-3-333-3-222-2-222-2-|

|----------------------------------------------------|------|
|----------------------------------------------------|------|
|----------------------------------------------------|-RING-|
|-0--2-3p0-2-3p0-2-3p0-2-3p0-2-3p0-2-3p0-2-3p0-2-3p0-|--0---|

|----------------------------------------------------------------|
|----------------------------------------------------------------|
|----------------------------------------------------------------|
|-0000-3-0000-2-0000-3-00-2-00-1--0000-3-0000-2-0000-3-00-2-00-1-|

|----------------------------------------------------------------|
|----------------------------------------------------------------|
|----------------------------------------------------------------|
|-0000-3-0000-2-0000-3-00-2-00-1--0000-3-0000-2-0000-3-00-2-00-1-|

|--------------------------------------------|
|--------------------------------------------|
|--------------------------------------------|
|--00-3-5p0-00-3-00-23-00-3-5p0-00-3-00-2-2--|

|------------------------------------------|
|------------------------------------------|
|------------------------------------------|
|--00-3-5p0-00-3-00-23-00-3-5p0-00-3-00-2--|

|-----------------------------------------------------|
|-----------------------------------------------------|
|-----------------------------------------------------|
|-0-3-0-5-7-6-666-666-666-6-0-3-0-5-7-6-666-666-666-6-|

|-----------------------------------------------------|
|-----------------------------------------------------|
|-----------------------------------------------------|
|-0-3-0-5-7-6-666-666-666-6-0-3-0-5-7-6-666-666-666-6-|

|-----------------------------------------------------|
|-----------------------------------------------------|
|-----------------------------------------------------|
|-0-3-0-5-7-6--0-3-0-5-7-6--0-3-0-5-7-6--0-3-0-5-7-6--|

|-----------------------------------------------------|
|-----------------------------------------------------|
|-----------------------------------------------------|
|-0-3-0-5-7-6--0-3-0-5-7-6--0-3-0-5-7-6--0-3-0-5-7-6--|

|-----------------------------------------------------|
|-----------------------------------------------------|
|-----------------------------------------------------|
|-0-3-0-5-7-6--0-3-0-5-7-6--0-3-0-5-7-6--0-3-0-5-7-6--|

|-----------------------------------------------------|
|-----------------------------------------------------|
|-----------------------------------------------------|
|-0-3-0-5-7-6--0-3-0-5-7-6--0-3-0-5-7-6--0-3-0-5-7-6--|

|---------------------||------||-------------------||
|---------------------||------||-------------------||
|---------------------||-RING-||-------------7----||
|-0.--------------0(0)||-(0)--||---000--000--0----||


-The Metal Messiah!
MSN Messenger: newfie_bassist@hotmail.com



Get this song at amazon.com      Ebay     Ringtones Ringtones  


Learn to play: Songwriting, Piano, Harmonica, Guitar
Also available at Muzikum: Metallica - Fight Fire With Fire lyrics

Related Metallica Bass Tabs

One bass
Master Of Puppets( Easier 2 Play) bass
Its Electric bass
Don't Tread On Me bass
Astronomy bass
Invisible Kid bass
Stone Dead Forever bass
London Dungeon bass
My World Bass Solo bass
Enter Sandman Main Riff bass
Helpless bass
Through The Never bass
For Whom The Bell Tolls bass
I Disappear bass
Battery bass
The Outlaw Thorn bass
Pulling Teeth bass
So What bass
Some Kind Of Monster bass
Motorbreath bass


Guitar Tabs









All tabs are property and copyright of their owners. All tabs provided for educational purposes only. Privacy Policy, DMCA