Metallica

Escape Bass Tabs



More from Metallica

Metallica Tabs
Metallica Chords
Metallica Bass
Metallica Lyrics



Band: Metallica
Song: Escape
Album: Ride The Lightning
Bassist: Cliff Burton
Tabbed By: Eric Vezeau (Vezy)

Standard Tunning

Intro
g---------------------|--------------------------|
d---------------------|--------------------------|
a-------------5-7--5--|(5)--------5-7-5----------| (x3)
e--5-5-5-5-5-5--------|--------8---------8--7----|

g--------------------|--------------------|
d--------------------|--------------------|
a-------------5-7--5-|(5)--------5--8--8--|
e-5-5-5-5-5-5--------|--------8-----------|


g---------------------|
d---------------------|
a-0-0-0-0-0-0-0-5-7---| (x4)
e---------------------|


g--------------------|-----------------|-------------------|--------------|
d---------------5-7--|-----------------|---------------5-7-|---------875--|
a-0-0-0-0-0-0-0------|-0-0-0-0-6-5-3-5-|-0-0-0-0-0-0-0-----|-0-0-0-0----7-|
e--------------------|-----------------|-------------------|--------------|

Verse 1 and 2 Bass Riff 1
g-----------------|-------------------|------------------|
d-----------------|-------------------|------------------|
a-----------------|-------------------|------------------|
e-2-2-2-2-2-2-2-2-|-2-2-2-2-2-2-2-3-3-|-3-3-2-2-2-2-2-2-2|


g------------------|------------------|----------------|
d------------------|------------------|----------------|
a------------------|------------------|----------------|
e-2-2-2-2-2-2-2-33-|-33-2-2-2-2-2-2-2-|-2-2-2-2-2-2-33-|

end Bass Riff 1
g------------------|-------------------|
d------------------|-------------------|
a------------------|-------------------|
e-33-2-2-2-2-2-2-2-|-2---3---x-0---x-1-|

Repeat Bass Riff 1


Chorus Bass Riff 2
(end bass fig.2)
g------------|---------------|------------------|----------------2-|
d------------|---------------|------------------|--------------4---|
a-0--0--0--0-|-0--0--0---0---|------------------|------------4-----| (x4)
e------------|---------0---3-|(3)---3---3-0-3-2-|(2)---2---2-------|

g--------------------|-----------------|-------------------|--------------|
d---------------5-7--|-----------------|---------------5-7-|---------875--|
a-0-0-0-0-0-0-0------|-0-0-0-0-6-5-3-5-|-0-0-0-0-0-0-0-----|-0-0-0-0----7-|
e--------------------|-----------------|-------------------|--------------|

Play Bass Riff 1 (2 times)

Play Bass Riff 2 (3 times)

g------------|---------------|------------------|--------------|
d------------|---------------|------------------|--------------|
a-0--0--0--0-|-0--0--0---0---|------------------|--------------|
e------------|---------0---3-|(3)---3---3-0-3-2-|(2)--2--2--2--|

g-----------------------|-----------------------|
d--------4--------------|-------4---------------|
a-----4-----2--0--------|----4-----0------------|
e--2--------------------|-2-----------3---------|

Bridge (half time feel)
g--------------|-------------|-------------|-------------|
d--------------|-------------|-------------|-------------|
a--------2--0--|-------------|-------2--0--|-------------|
e--2--2--------|-2--2--3--3--|-2--2--------|-0--0--3--3--|

g----------4--------------|----------2--------------|
d-------4-----------------|-------4-----------------|
a----4--------0--0--0--0--|----4--------------------|
e-2-----------------------|-2-----------3--3--3--3--|

g----------2--------------------------|
d-------4-----------------------------|
a----4--------------------------------|
e-2-----------1--1--1--1--1--1--1--1--|

Guitar solo
g------------------|-----------------|-----------------|
d------------------|-----------------|-----------------|
a------------------|---------6-5-3-5-|-----------------|
e--0-0-0-0-0-0-0-0-|-0-0-0-0---------|-0-0-0-0-0-0-0-0-|

1.
g------------------|
d---------8-7-5----|
a---------------7--|
e-0-0-0-0----------|


2.
g-----------------|
d-----------------|
a---------6-5-3-5-|
e-0-0-0-0---------|


g-------------------|-------------------|
d-------------------|-------------------|
a-------------------|-------------------| (x3)
e--0-2-2-0-2----0-0-|-0-2-2-0-0-3--3----|

g-------------------|
d-------------------|
a-------------------|
e-0-2-2-0-2-3-------|


g-------------|
d-------------|
a-------------| (x5)
e--0----0-----|

g--------------------------|
d--------------------------|
a-7--7-7-7--7--7--7-7-7--7-|
e--------------------------|

(play until end & fade)
g------------------|------------------|
d------------------|------------------|
a------------------|---------6-5-3-5--|
e--0-0-0-0-0-0-0-0-|-0-0-0-0----------|


Well Thats the tab, Enjoy!!!!!!!



Get this song at amazon.com      Ebay     Ringtones Ringtones  


Learn to play: Songwriting, Piano, Harmonica, Guitar
Also available at Muzikum: Metallica - Escape lyrics

Related Metallica Bass Tabs

Bad Seed bass
Last Caress bass
Saint Anger bass
Dirty Window bass
Anasthesia (Pulling Teeth) bass
Fight Fire With Fire bass
Free Speech For The Dumb bass
Live Shit bass
Anesthesia bass
Motorbreath (live) bass
Metal Militia bass
Where The Wild Things Are bass
Cliff Burton Memorial bass
Ronnie bass
I Disappear bass
Through The Never bass
Aint My Bitch bass
Cliff Burton Memorial R.i.p bass
Friend Of Mysery bass
Poor Twisted Me bass


Guitar Tabs









All tabs are property and copyright of their owners. All tabs provided for educational purposes only. Privacy Policy, DMCA