Metallica

Enter Sandman (bass Tab) Bass Tabs



More from Metallica

Metallica Tabs
Metallica Chords
Metallica Bass
Metallica Lyrics




Intro

Intro/Verse Riff

|--------------------------|
|--------------------------|
|--------------------------|
|--0--0--0--0--0--0--0--1--| x20

Intro Part 2

|--------------------------|
|--------------------------| x3
|--------------------------|
|--0--0--0--6--5--5--0--0--|

|---------------------------|
|---------------------------|
|---------------------------|
|--3---0--2--0--2--3--2--0--| repeat from the beginning
of intro part 2 - x1

Verse

|--------------------------|
|--------------------------|
|--------------------------|
|--0--0--0--0--0--0--0--1--| x2


|--------------------------------------------|
|--------------------------------------------|
|--------------------------------------------|
|--0--0--0--0--0--0--0--3--0--2--0--2--3--2--| repeat
from beginning of verse - x1

Pre-Chorus

|-----------------|--------------|--------------|
|-----------------|--------------|--------------|
|---------2-------|------2-------|------2-------|
|--2-----------2--|-----------2--|-----------2--|

|--------------------------|
|--------------------------|
|--------------------------|
|--2--2--2--2--2--0--0--1--|

Chorus Riff

|--------------------------|----------------------------|
|--------------------------|----------------------------|
|-----------3--2--2--2-----|----------3--2--2--2--------|
|--2--2--2--------------2--|----2--2--------------2--2--|

|-----------------------------------------------|
|-----------------------------------------------|
|-------3--2--2--2------------5-----7--5--------|
|-2--2--------------0----5/7-----7--------7--3--|

|-----------------------|-----------------------------|
|-----------------------|-----------------------------|
|--------3--2--2--2-----|-----------------------------|
|2----2--------------0--|--0--0--2--0--3--0--5--0--3--|


Intro Part 2 - x2
Verse - x2
Pre-Chorus - x1
Chorus - x1
Intro Part 2 - x2
Verse - x2
Pre-Chorus - x1
Chorus - x1
-------------------------
During Solo

Intro Part 2 - x2
Pre-Chorus - x1
Chorus - x1
-------------------------
Intro - x20
Chorus - x2

Intro Part 2

|--------------------------|
|--------------------------| x5
|--------------------------|
|--0--0--0--6--5--5--0--0--|

|---------------------------|
|---------------------------|
|---------------------------|
|--3---0--2--0--2--3--2--0--| do not repeat


Intro Part 2

|--------------------------|
|--------------------------|
|--------------------------|
|--0--0--0--6--5--5--0--0--| repeat this and only this until fade out

this is my first tab guys, tell me what you think of it ok!



Get this song at amazon.com      Ebay     Ringtones Ringtones  


Learn to play: Songwriting, Piano, Harmonica, Guitar
More Metallica lyrics available at Muzikum

Related Metallica Bass Tabs

Bass Solo bass
Unforgiven bass
Friend Of Mysery bass
Sad But True bass
Cliff Em All Bellz bass
Imperial March bass
Anasthesia (Pulling Teeth) bass
Blitzkrieg bass
Nothing Else Matters bass
One (guitar Intro) bass
Bad Seed bass
Holier Than Thou bass
Dont Tread On Me bass
Cunning stunts bass
Dirty Window bass
Saint Anger bass
Pulling Teeth (anesthesia) bass
Master Of Puppets bass
Metal Militia bass
Die Die My Darling (misfits Cover) bass


Guitar Tabs









All tabs are property and copyright of their owners. All tabs provided for educational purposes only. Privacy Policy, DMCA