Metallica

Enter Sandman(100% Correct And Improved) Bass Tabs



More from Metallica

Metallica Tabs
Metallica Chords
Metallica Bass
Metallica Lyrics




Intro/Verse Riff

g------0-----------0--------
D----2-------2---2-------2--if u want u can play this at the same time
A--------1-0---------1-0----as the guitar i do as it sounds pretty sweet
E--0-----------0-----------0


G-------------------------------
D--------------------------------
A--------------------------------
E--0-0-0-0-0-0-0-0-0-0-0-0-0-0-0-0 x 10

G-------------------------------
D-------------------------------
A-------------------------------
E0-0-0-0-0-0-0-1-0-0-0-0-0-0-0-1

Intro Part 2

G-------------------------------
D------------------------------- x3
A-------------------------------
E--0-0-0-6-5-5-0-0-3-0-2-2-3-2-0


Verse

G-------------------
D------------------
A------------------
E--0-0-0-0-0-0-0-1-- x2


G--------------------------------
D--------------------------------
A---------------------------------
E--0-0-0-0-0-0-0--3-0-2-0-2-3-2-- repeat


Pre-Chorus

G---------------------------------------------
D---------------------------------------------
A---------2-------------2-------------2-------
E--2-----------2-------------2-------------2--

G--------------------------
D--------------------------
A--------------------------
E--2--2--2--2--2--0--0--1--

Chorus Riff

G-----------------------------------------------
D----------------------------------------------
A----------3-2-2-2---------------3-2-2-2--------
E--2-2-2-------------2------2-2--------------2-2

G-----------------------------------------
D-----------------------------------------
A--------3-2-2-2--------------------------
E2----2-------------0---0-0-2-0-3-0-5-0-3--


Intro Part 2 again

G----------------------------------
D----------------------------------
A----------------------------------
E--0-0-0-6-5-5-0-0--3-0-2-0-2-3-2-0

G-------------------
D-------------------
A-------------------
E--3--0-2-0-2-3-2-0--

endin
G-----------------
D------------------
A------------------
E--0-0-0-0-0-0-0-1-
enjoy



Get this song at amazon.com      Ebay     Ringtones Ringtones  


Learn to play: Songwriting, Piano, Harmonica, Guitar
More Metallica lyrics available at Muzikum

Related Metallica Bass Tabs

The Shortest Straw bass
89' Seattle Bass Solo bass
The unnamed feeling bass
Anesthesis(pulling Teeth) bass
One bass
We Did It Again bass
Whiplash bass
Ronnie bass
Metal Miltia. bass
For Whomb The Bels Tool bass
Mexico City Bass Solo bass
For Whom The Bell Tolls (bass And Guitar) bass
Orion Bass Interude/solo bass
The house that jack built bass
My World Bass Solo bass
No Leaf Clover bass
Unforgiven bass
So What bass
Enter Sandman (intro) From The Book bass
Bleeding Me bass


Guitar Tabs









All tabs are property and copyright of their owners. All tabs provided for educational purposes only. Privacy Policy, DMCA