Metallica

Ecstasy Of Gold Tabs



More from Metallica

Metallica Tabs
Metallica Chords
Metallica Bass
Metallica Lyrics

-------------------------------------------------------------------------------

ECSTASY OF GOLD - METALLICA

-------------------------------------------------------------------------------



Tabbed by: Leon Mellingen

Email: webmaster at tabs-database.com.com





This is a strumming version including the solo.



Chords used: Am-C-D-F-Am-A0*-C-E x2 (* strum the three thinnest open strings GBe )



then Am-C-D-F-C-G-Am-D Am-C-D-F-Am-D-Am-C-D-F-Am



Tuning: Standard



SOLO:



e|-------------------------------------7-------------------------------------|

B||------8-------------------------------8--585----5--8----5-----------------|

G||-----9-9-797--97--97--------------9---------757-----5-7-------------------|

D||----7-------7---7----77-10-7-----7----------------------------------------|

A|---------------------------------------------------------------------------|

E|---------------------------------------------------------------------------|



e|--------------------------------------7------------------------------------|

B||-------8-------------------------------8-585-----5--8-----5---------------|

G||------9-9---797--97--97----------975--------757------5-7------------------|

D||-----7---------7---7----7-7-----7-----------------------------------------|

A|---------------------------------------------------------------------------|

E|---------------------------------------------------------------------------|



e|-----------------------------------------------10-8-10---------------------|

B||--------8-------------------------10-8---9-12-----------------------------|

G||-------9-9-797--97--97----------10------9---------------------------------|

D||------7--------7---7---7---7-10-------------------------------------------|

A|---------------------------------------------------------------------------|

E|---------------------------------------------------------------------------|



e|----------------8---------------8----8--8----------------------------------|

B||--------8----10--10------8----10-10---10-10-10----------------------------|

G||-------9-9-7-----------9--9--7--------------------------------------------|

D||------7---------------7---------------------------------------------------|

A|---------------------------------------------------------------------------|

E|---------------------------------------------------------------------------|



This, hopefully will get you started ROCKIN` the Ecstasy of gold tune



any feedback will be great! webmaster at tabs-database.com.com



ROCK IT !











===============================================================================

Added by tabs-database.com and our distinguished partners
Get this song at amazon.com      Ebay     Ringtones Ringtones  


Learn to play: Songwriting, Piano, Harmonica, Guitar
More Metallica lyrics available at Muzikum

Related Metallica Tabs

Call Of Ktulu tabs
Enter The Sand Man tabs
Mexico City Riff tabs
NIB tabs
Master of Puppets (intro) tabs
Harvester Of Sorrow Solo tabs
Blues Jam tabs
And Justice For All Full Album tabs
All Within My Hands tabs
The House Jack Built tabs
Jump In The Fire(whole Song) tabs
Leper Messiah Solo tabs
In Memory Of Cliff Solo tabs
Charlie Brown Theme tabs
Enter Sandman tabs
Pulling Teeth tabs
Duirty Window tabs
Wherever I May Roam tabs
Jump In The Fire Solo tabs
Dont Read On Me,correct(rate) tabs


Guitar Tabs









All tabs are property and copyright of their owners. All tabs provided for educational purposes only. Privacy Policy, DMCA