Metallica

Die Die Die My Darling (misfit Cover) Bass Tabs



More from Metallica

Metallica Tabs
Metallica Chords
Metallica Bass
Metallica Lyrics




Standered Tunning (E,A,D,G)

INTRO/CHORUS

G|---------------------------------|
D|---------------------------------|
A|-2-2-2-2-2-2-2-2-----------------|
E|-----------------3-3-3-3-2-2-2-2-|

G|---------------------------------------------------------|
D|---------------------------------------------------------|
A|-----------------2-2-2-2-2-2-2-2-------------------------|
E|-0-0-0-0-0-0-0-0-----------------0-0-0-0-3-3-3-3-3-3-3-3-|

VERSE

G|---------------------------------------------|
D|---------------------------------------------|
A|-2-2-2-2-2-2-2-2-2-2-2-2---------5-5-5-4-4-4-|
E|-------------------------3-3-3-3-------------|

OUTRO

G|-----------------|
D|-----------------|
A|-2-2-2-2-2-2-2-2-|
E|-----------------|

ENJOY...

EVEN METALLICA LEARNED FROM THE BEST!!!



Get this song at amazon.com      Ebay     Ringtones Ringtones  


Learn to play: Songwriting, Piano, Harmonica, Guitar
More Metallica lyrics available at Muzikum

Related Metallica Bass Tabs

Fight Fire With Fire bass
Pulling Teeth bass
For Whom The Bell Tolls -except Correct bass
The Unforgiven bass
Wherever I May Roam bass
Dirty Window bass
Green Hell bass
Bass And Guitar Solo Tribute bass
Creeping Death bass
Low Mans Lyric bass
So F***ing What bass
Ain't My Bitch bass
Shoot me again bass
Astronomy bass
Throgh The Never bass
Little Wing bass
Minus Human bass
The Memory Remains bass
Breadfan bass
Another Enter Sandman, But Correct bass


Guitar Tabs









All tabs are property and copyright of their owners. All tabs provided for educational purposes only. Privacy Policy, DMCA