Metallica

Bass And Guitar Solo Tribute Bass Tabs



More from Metallica

Metallica Tabs
Metallica Chords
Metallica Bass
Metallica Lyrics



If u thought this was both ure wrong its tabs-database so its bass here it goes listen to the
song its with newsted playing the bas to get the tempo ill write a bit of it

Intro (bass solo)

G---14-16-14-13--14-16-14-13--13h14-13-11---------14----------14------|
D-----------------------------------------14-11------11----11----11---|
A-----------------------------------------------12------12---------12-|
E-0(ring)-------------------------------------------------------------|

G----14-16-14-13--14-16-14-13--13h14-13-11---------14----------14------|
D------------------------------------------14-11------11----11----11---|
A------------------------------------------------12------12---------12-|
E-00(ring)-------------------------------------------------------------|

G----11----11-----11-----11-----|----12---12------12----|
D-00-----12--0--12--0--12--0----|---9--9-----9------9---|
A------12-----12-----12-----12/-|-10----10-----10----10-|
E-------------------------------|-----------------------|

G----11----11-----11-----11-----|----12---12--------------|
D-00-----12--0--12--0--12--0----|---9--9-----9------------|
A------12-----12-----12-----12/-|-10----10-----10-10-10/7-|
E-------------------------------|-------------------------|

G---14-16-14-13--14-16-14-13--13h14-13-11---------14----------14------|
D-----------------------------------------14-11------11----11----11---|
A-----------------------------------------------12------12---------12-|
E-0(ring)-------------------------------------------------------------|

G----14-16-14-13--14-16-14-13--13h14-13-11---------14----------14------|
D------------------------------------------14-11------11----11----11---|
A------------------------------------------------12------12---------12-|
E-00(ring)-------------------------------------------------------------|

G----11----11-----11-----11-----|----12---12------12----|
D-00-----12--0--12--0--12--0----|---9--9-----9------9---|
A------12-----12-----12-----12/-|-10----10-----10----10-|
E-------------------------------|-----------------------|

G----11----11-----11-----11-----|----12-12-|-|
D-00-----12--0--12--0--12--0----|---9---9--| chord
A------12-----12-----12-----12/-|-10----10-|-|
E-------------------------------|----------|

Mid (guit kiks in)(every note let ring)

G---10---10---14---12---10----|-9---9---12---10---9----|
D-----12---12---12---12-------|--10--10---10---10------|
A-0-----0----0----0----0---00-|----0---0----0----0--00-|
E-----------------------------|------------------------|

G---10---10---14---12---10----|-9---9---12---10---9----|
D-----12---12---12---12-------|--10--10---10---10------|
A-0-----0----0----0----0---00-|----0---0----0----0--00-|
E-----------------------------|------------------------|

G---10---10---14---12---10----|-9---9---12---10---9----|
D-----12---12---12---12-------|--10--10---10---10------|
A-0-----0----0----0----0---00-|----0---0----0----0--00-|
E-----------------------------|------------------------|

G---10---10---14---12---10----|-9---9---12---10---9----|
D-----12---12---12---12-------|--10--10---10---10------|
A-0-----0----0----0----0---00-|----0---0----0----0--00-|
E-----------------------------|------------------------|

G---10---10---14---12---10----|-9---9---12---10---9----|
D-----12---12---12---12-------|--10--10---10---10------|
A-0-----0----0----0----0---00-|----0---0----0----0--00-|
E-----------------------------|------------------------|

G---10---10---14---12---10----|-9---9---12---10---9----|
D-----12---12---12---12-------|--10--10---10---10------|
A-0-----0----0----0----0---00-|----0---0----0----0--00-|
E-----------------------------|------------------------|

Fill 1

G-----7---4---4-5----5-7/9/7-5-|-----7---4---4-5----5-7/9/7-5-|
D-5-5---5---5-----7------------|-5-5---5---5-----7------------|
A------------------0-----------|------------------0-----------|
E------------------------------|------------------------------|

G-----7---4---4-5----5-7/9/7-5-|-----7---4-------|-----------9-9-9-|
D-5-5---5---5-----7------------|-5-5---5---5-7-5-|-----------9-9-9-|
A------------------0-----------|-----------------|-----2-2/7-7-7-7-|
E------------------------------|-----------------|-0-4-------------|
^ ^ |
| | |
| | v

fill 2 (bass out)

Sanitarium

G-wait--------|-wait-7h9-----7h9--------|
D-wait--------|-wait-----7h9----7h9-----|
A-wait-5-7-5--|-wait---------------7/0--|
E-wait------0-|-wait------------------0-|

G-----9---5----7------------------|-----9---5----7-----------------|
D----9---5-5--7-7--7---5----------|----9---5-5--7-7--7---5---------|
A-7-----3----5--------------------|-7-----3----5---------------3h5-|
E-----------------5-5-3-3-3-3/5/3-|-----------------5-5-3-3-3h5----|

G-----9---5----7------------------|-----9---5----7--------------|
D----9---5-5--7-7--7---5----------|----9---5-5--7-7-------------|
A-7-----3----5--------------------|-7-----3----5----------------|
E-----------------5-5-3-3-3-3/5/3-|-----------------5--3--5-3-0-|

Nothing else matters

G----9-----9-----9-----9----|
D-----9-----9-----9-----9---|
A------7-----7-----7-----7--|
E-0-----0-----0-----0-----0-|

And thats the end tip especialy at the begining try to hold the position of ure hand



Get this song at amazon.com      Ebay     Ringtones Ringtones  


Learn to play: Songwriting, Piano, Harmonica, Guitar
More Metallica lyrics available at Muzikum

Related Metallica Bass Tabs

Bass Solo Seattle 1989 bass
Whiplash bass
The Frayed Ends Of Sanity bass
Cliff Em All Bellz bass
Imperial March bass
Live Shit bass
Ride The Lightning bass
Shoot me again bass
Mexico City Bass Solo bass
Damage Inc bass
Sleether bass
53rd&3rd bass
Whiskey In The Jar bass
Leper Messiah bass
Master Of Puppets(improved) bass
The Call Of Ktulu bass
Breadfan bass
The Unforgiven Intro bass
No Leaf Clover bass
Seek And Destroy bass


Guitar Tabs









All tabs are property and copyright of their owners. All tabs provided for educational purposes only. Privacy Policy, DMCA

Online converter - videoconverter.com