Marty Robbins

Marty Robbins - El Paso intro guitar tab

Marty Robbins

El Paso (Intro)

E-------------------------------------------------

B------------7-10-7-----------------10-12---------

G----------7--------7----------9-12-------12-9----

D--------7-------------------9--------------------

A------9----------------9h10----------------------

E---10--------------------------------------------

E----10-10-10-10-10-10-10--9--7-5-3-2-------------

B----12-12-12-12-12-12-12--10-8-7-5-3-------------

G-------------------------------------------------

D-------------------------------------------------

A-------------------------------------------------

E-------------------------------------------------

You must forgive me for the sloppy playing on the soundbyte and the quality of it isn't that great either.

Get this song at:  amazon.com sheetmusicplus.com

Share your thoughts

0 Comments found