Mark Knopfler

Mark Knopfler - Why Aye Man guitar tab

Mark Knopfler - Why Aye Man

I heard this riff on Auf Wiedersein Pet, and just had to work it out.

I'm only 16 so dont blame me if its wrong, but it sounds just about

correct to me.

E:-------------------------------------------------

B:--6-6----------------------------5---------------

G:------7p5---7--7p5---5h7p5---5h7---5h7-7p5-------

D:----------7--------7-------7---------------7-----

A:-------------------------------------------------

E:-------------------------------------------------

Then at the end, this is played.

E:-------------------------------------------------

B:--6-6--------------------------------------------

G:------7p5---7--7p5---5h7p5-----------------------

D:----------7--------7-------7-5h7p5---------------

A:-----------------------------------7-5-----------

E:-------------------------------------------------

Please feel free to e-mail me with any questions or comments at

matt_memmott@hotmail.com.

Cheers.

Get this song at:  amazon.com sheetmusicplus.com

Share your thoughts

0 Comments found