Mark Knopfler

Mark Knopfler - Vic And Ray guitar tab

Vic and Ray

---------|-------------|-----------|-----------||

-2---2-3-|-5---5-3---3-|---2---2-3-|----5----5-||

---2-----|---2-----2---|-2---2-----|-----------||:

-2-------|-2-----------|-----------|-2-----2---||

---------|-------------|-----------|-----------||

---------|-------------|-----------|-----------||

Verses

---------|---------|---------|-------| |-------|---------| |-| |

-2---2-3-|-5---5-3-|-2---2-3-|-----5-| |-------|---------| |-| |

---2-----|---2-----|---2-----|-------| Em |-2-2---|-2-2---2-| C D |-| Em |

-2-------|-2-------|-2-------|-2-----| |-2-2-2-|-2-2-2-2-| |-| |

---------|---------|---------|-------| |-0-0-0-|-0-0-0-0-| |-| |

---------|---------|---------|-------| |-------|---------| |-| |

---------|-------| |-| |---------|---------||

-2---2-3-|-5---5-| |-| |-2---2-3-|-5-----5-||

---2-----|---2---| C D |-| Em |---2-----|---------||:

-2-------|-2-----| |-| |-2-------|-2---2---||

---------|-------| |-| |---------|---------||

---------|-------| |-| |---------|---------||

Chorus

-----|-|-------|---------|-------|-|-----------|-|-|-|-|

-----|-|-------|-7-5-5-5-|-------|-|-----------|-|-|-|-|

-5>7-|-|---5>7-|-7-6-6-6-|---5>7-|-|-7^5>2-----|-|-|-|-|

-5>7-|-|---5>7-|---------|---5>7-|-|-------5>7-|-|-|-|-|

-3>5-|-|-0-3>5-|---------|-0-3>5-|-|-------3>5-|-|-|-|-|

-----|-|-------|---------|-------|-|-----------|-|-|-|-|

Solo: Play like Verse 1

-----|-------------|-|--------|-|-----|-|-------------|-|---------------|---|

-2>3-|-5-5---7~(8)-|-|-~7---5-|-|-----|-|-------------|-|---------------|---|

-----|-------------|-|--------|-|-5>7-|-|-7>9^7-5-----|-|---7~(8)~7^5^7-|-5-|

-----|-------------|-|--------|-|-5>7-|-|---------7-7-|-|-5-------------|---|

-----|-------------|-|--------|-|-3>5-|-|-------------|-|---------------|---|

-----|-------------|-|--------|-|-----|-|-------------|-|---------------|---|

-------------------|-|----------|---------|---5---5-----5-|-----------|--------|---10-8-7---|

-------------------|-|-5-8>10-8-|-5>8---5-|-5---5---7-8---|-5^7-7~(8)-|-~7---5-|-8-------10-|

-7~(9)-7~(9)~7^5---|-|----------|-------4-|---------------|-----------|--------|------------|

-----------------7-|-|----------|---------|---------------|-----------|--------|------------|

-------------------|-|----------|---------|---------------|-----------|--------|------------|

-------------------|-|----------|---------|---------------|-----------|--------|------------|

-|---------------|-|---7^8>10-|-------------------|-------------------------|

-|-8~(10)~8---10-|-|-8--------|-13-12-------12----|--------10---10^8--------|

-|----------9----|-|----------|-------14-12----14-|-12~(14)----------9------|

-|---------------|-|----------|-------------------|--------------------10-7-|

-|---------------|-|----------|-------------------|-------------------------|

-|---------------|-|----------|-------------------|-------------------------|

Get this song at:  amazon.com sheetmusicplus.com

Share your thoughts

0 Comments found