Mark Knopfler

Mark Knopfler - Two Brothers And A Stranger guitar tab

Date: Sun, 1 Apr 2001 22:29:40 -0400

From: "Kellen Oberts"

Subject: k/knopfler_mark/two_brothers_and_a_stranger.tab

Mark Knopfler

"Two Brothers and A Stranger"

Tab by: Kellen Oberts (all my own work)

0'33" 0'37" 0'42" 0'44"

e||----------|------------------|------------------|------------------|

B||o---------|------------------|------------------|------------------|

G||---4h6----|---6-4---4-6------|---6-4-----4------|---6-4-----4------|

D||----------|-------7-----4----|-------7-6--------|-------7-6--------|

A||o---------|------------------|------------------|------------------|

E||----------|------------------|------------------|------------------|

0'47" 1st________ 2nd________ 1'15"

e|--------------------|-----------||-----------|--------------|

B|--------------------|----------o||-----------|--------------|

G|---6-4-------4-4----|--6>4>6-4--||--11-9>11--|-11>9--9-11>4-|

D|-------7-6-7--------|-----------||-----------|-11>9--9-11>4-|

A|--------------------|----------o||-----------|--------------|

E|--------------------|-----------||-----------|--------------|

1'18" 1'20" 1'25" 1'30"

e|------------------------------|-----------------------|--------------|

B|------4-----------------------|-----------------------|--------------|

G|--4-6---4-6-6>11-9-8-9-9-8-8--|--8-9-8-9------11~--9~-|-11-11>9-9-11-|

D|--4-4-4-4-4-4--------9-9-9-9--|--9-9-9-9------11~--9~-|-9--9--9-9-9--|

A|------------------------------|-----------------------|--------------|

E|------------------------------|-----------------------|--------------|

1'33" 1'40" 1'42" 1'45"

e|----------------------|--------------|--------------|----------------|

B|----------------------|--------------|--------------|----------------|

G|-11-11~-9-6-9-6-4-6---|--6-4-----4---|--6-4-----4---|--6-4---4-6-6---|

D|--------------------4-|------7-6-----|------7-6-----|------7---------|

A|----------------------|--------------|--------------|----------------|

E|----------------------|--------------|--------------|----------------|

1'50" 1'58" 2'02"

e|--------------------|--------------------|--------------|

B|-7-7----------------|-----7-----------5--|-7-5---5-7-5--|

G|-----6-6-4---4-6----|-4-6---6-4---4-6----|-----6--------|

D|-----------7-----4--|-----------7--------|--------------|

A|--------------------|--------------------|--------------|

E|--------------------|--------------------|--------------|

2'06" 2'09" 2'14"

e|--------------------------|---------------|---------------|

B|--5-4---4-----------7-7---|---------------|--7------------|

G|------6---4-------4-6-6---|-6-4---4-4h6---|--6-4---4-6----|

D|------------7-6-7---------|-----7---------|------7-----4--|

A|--------------------------|---------------|---------------|

E|--------------------------|---------------|---------------|

2'19" 2'21" 2'23" 2'28"

e|-------------|-------------|--------------5-----|---------------|

B|--7-7--------|--7----------|----------5-7---7-5-|---------------|

G|--6-4-----4--|--6-4-----4--|--6-4---4-4-6-------|--------4-6-6>-|

D|------7-6----|------7-6----|------7-------------|--7-7~--4-4-4>-|

A|-------------|-------------|--------------------|---------------|

E|-------------|-------------|--------------------|---------------|

Thats it! Any comments or questions, email: kellenmo@hotmail.com

Get this song at:  amazon.com sheetmusicplus.com

Share your thoughts

0 Comments found