Mark Knopfler

Mark Knopfler - Silvertown Blues guitar tab

Silvertown Blues : Mark Knopfler

------------|---------------|-------------------------|-----------------||

--------3---|----------3---|----------3---------1---|-------------3---||

----2-------|------3-------|------2---------2-------|---x-----3------|| : Play this riff until end of verse 2

-0----------|---0----------|---0---------0----------|-------0---------||

------------|---------------|-------------------------|-----------------||

------------|---------------|-------------------------|-----------------||

On Silvertown Way, the cranes stand high

Quiet and gray against the still of the sky

They won't quit and lay down though the action has died

They watch the new game in town on the Blackwall side

From the poisinous drains a vision appears

New circle of cranes, a new reason to be here

A big silver dome rising up into the dawn

Above the church and the homes were all the silver is gone

Gm Bb C Am

If I'd a bucket of gold, what would I do

-3---|---|------------------|----------------------|

-3---|---|------------------|---5---3---1^3^1---|

-3---|---|------------------|----------------------|

-5---|---|---3---3-3>5---|----------------------|

-5---|---|------------------|----------------------|

------|---|------------------|----------------------|

C Bb Dm

I'd leave the story untold Silvertown blues

F Bb

Going down Silvertown

C Dm

Down in Silverdown

Bb C

Going down Silvertown

Down in Silverdown

-----------------------|

-------1----------1---|

----2----------0------|

-3---------2----------|

-----------------------|

-----------------------|

-----------1---|----------1---|---------1----0---|--------------1---||

-------3-------|-------3------|------3----1------|---1-----3--------||

----2----------|---3----------|---2---------------|------3-----------|| :

----------------|---------------|-------------------|-------------------||

----------------|---------------|-------------------|-------------------||

----------------|---------------|-------------------|-------------------||

A silver dawn steals over the docks

A truck with no weels up on cinderblocks

Men with no dreams around a fire in a drum

Scrap metal schemes are rusted over and done

Gm Bb C Am

-3---|---|------------------|-----------------------|

-3---|---|------------------|-----------------------|

-3---|---|------------------|---5-5-5^7---5>2---|

-5---|---|---3---3-3>5---|---0-0-0------0------|

-5---|---|------------------|-----------------------|

------|---|------------------|----------------------|

If I'd a bucket of gold, silver would do

C Bb Dm

I'd leave the story untold Silvertown blues

-5-------------|

----6>8---6---|

----------------|

----------------|

----------------|

----------------|

F Bb

Going down Silvertown

C Dm

Down in Silverdown

Bb C

Going down Silvertown

C

Down in Silverdown

-----------------------|--------|

-------1----------1---|--------|

----2----------0------|--------|

-3---------2----------|---0---|

-----------------------|--------|

-----------------------|--------|

When you're standing on thin and dangerous ice

---------------------------------------------------------

-3^5---6-6---5^3----6------6^5^3--------------3---

---------------------5-------------------5^2^5--------

---------------------------------------------------------

---------------------------------------------------------

---------------------------------------------------------

You can knock and walk in for citizens' advice

-----------------------------------------------------

----3^5---6-6---5^3------6---5^3-----------3---

-2----------------------5--------------5^2^5------

-----------------------------------------------------

-----------------------------------------------------

-----------------------------------------------------

They'll tell you the where you can turn, where you can go

----------------------------------------------------------------

----------3---6-----------------------3---3---6---5---1>3---

-5~(7)-----------5~(7)~5---2^5----------------------------

----------------------------------------------------------------

----------------------------------------------------------------

----------------------------------------------------------------

There's nothing they can tell me I don't already know

-------------------------------------------5---------

-8-8~(10)---8---6^5---------5^6>8------6>8---

--------------------------7--------------------------

-----------------------------------------------------

-----------------------------------------------------

-----------------------------------------------------

Gm Bb Gm Bb C

If I'd a bucket of gold, silver would do

-------------------------

-5-6-5-3~(5)~3-------

---------------------5---

--------------------------

--------------------------

--------------------------

C Bb Dm

I'd leave the story untold Silvertown blues

----------------------

----3>6---3^1^3---

-2-------------------

---------------------

---------------------

---------------------

F Bb

Going down Silvertown

C Dm

Down in Silverdown

Bb C

Going down Silvertown

F C Dm

Down in Silverdown

-----------------------------------

-8---8~(10)~8^6^8--------6---

-------------------------7--------

-----------------------------------

-----------------------------------

-----------------------------------

From the Caning Town train I see a billboard high

-------------------------

-6-6-6-6-6-6-6-6-6---………

-------------------------

-------------------------

-------------------------

-------------------------

There's a big silverplane raising up into the sky

----------------------------|-----------|------------|

-6-6-6-6-6-6---6-6----6-|---6-6---|---6^5-----|

------------------5-5-x-5-|-----------|--------7---|

----------------------------|-----------|------------|

----------------------------|-----------|------------|

----------------------------|-----------|------------|

And I can make out the words 'seven flights every day'

------------------------|------------------------|--------|

-3^5^6-6---5^3------|---6---5^3------------|---3---|

--------------------5---|-------------5^2^5---|--------|

-------------------------|-----------------------|--------|

-------------------------|-----------------------|--------|

-------------------------|-----------------------|--------|

Says six of those birds are bound for JFK

-----------------|---------------|---------------------|

-----------------|----------3---|----------6---6^8---|

-2---0^2---5---|---2^5-------|---5>7--------------|

-----------------|---------------|----------------------|

-----------------|---------------|----------------------|

-----------------|---------------|----------------------|

Gm Bb Gm Bb C

If I'd a bucket of gold, silver would do

---------------------

----5-6-8-8>10---

-5------------------

--------------------

--------------------

--------------------

C Bb Dm

I'd leave the story untold Silvertown blues

-5--------5--------

------8-------6----

--------------------

--------------------

--------------------

--------------------

F Bb

And I'm going down in Silvertown

C Dm

Down in Silverdown

Bb C

Going down Silvertown

F C

Down in Silverdown

Dm C Bb

And I'm going down in Silvertown

C Dm

Down in Silverdown

Bb C

Going down Silvertown

F C

Down in Silverdown

SOLO:

F C Dm Dm Bb C Dm Bb C

-------------------------------|---------------------------|--------|-----------|------------|----------------------|-----------------|-----------|---------------------

-10---8---8~(10)~8^6------|---------------------------|-------|---8-------|---6-------|---------6------------|--->6---6>8---|---6>8---|---6>8---10---8^6-

---------------------------7---|---7^9^10---9^10^9---|---7---|-------9---|-------7---|---5^7-----7^5^7---|--->7---7>9---|---7>9---|---7>9--------------

-------------------------------|---------------------------|--------|-----------|------------|-----------------------|-----------------|----------|----------------------

-------------------------------|---------------------------|--------|-----------|------------|-----------------------|-----------------|----------|----------------------

-------------------------------|---------------------------|--------|-----------|------------|-----------------------|-----------------|----------|----------------------

F C F C Dm C Bb Gm C

-------5---8---|--------|---|---5-------5---8---------|---|

-6^8-----------|---8---|---|------6^8---------6^8---|---|

----------------|--------|---|---------------------------|---|

----------------|--------|---|---------------------------|---|

----------------|--------|---|---------------------------|---|

----------------|--------|---|---------------------------|---|

Transcrit par Franck birambaux

Copyright Dire Straits Tab

Get this song at:  amazon.com sheetmusicplus.com

Share your thoughts

0 Comments found