Mark Knopfler

Mark Knopfler - Sands Of Nevada guitar tab

Author/Artist: Mark Knopfler

Title: Sands of Nevada

Album: Sailing to Philadelphia

Transcribed by: Graziano

Email: grazprim@sunstone.it

--------------------------|-------------------------|-------------------------

--------6-----------6-----|-------6-----------6-----|-------4-----------4-----

------5---5-------5---5---|-----4---4-------4---4---|-----5---5-------5---5---

----6-------6---6-------6-|---6-------6---6-------6-|---5-------5---5-------5-

--4-----------4-----------|-5-----------5-----------|-------------------------

--------------------------|-------------------------|-4-----------4-----------

-------------------------|----------4--3--3--1--------------------------------

-------4-----------4-----|-------3--6--4--3--3--------------------------------

-----5---5-------5---5---|-----4----------------------------------------------

---5-------5---5-------5-|---3------------------------------------------------

-------------------------|----------------------------------------------------

-5-----------5-----------|-3--------------------------------------------------

Get this song at:  amazon.com sheetmusicplus.com

Share your thoughts

0 Comments found