Mark Knopfler

Mark Knopfler - Sailing To Philadelphia guitar tab

Mark Knopfler- Sailing to Philadelphia

Tabbed by:unknown

submitted by: yellowfish (yourregularjoeschmo@hotmail.com)

intro:

0:09

-------------------------------------------------

-------------------------------------------------

--4/6---4--4-2-----------2-6-4/1-----------------

------7--------4p2-4---4-------------------------

-------------------------------------------------

-------------------------------------------------

first solo:

1:44

-------------------------------------------------

--------------------------5--------2-------------

----4-6b--4--------4/6--4---6--2h4---2--4--------

--7---------7-4---------------------------4------

-------------------------------------------------

-------------------------------------------------

1:59

-------------------------------------------------

-------------------------------------------------

-6-4---6-4-/1--1-2-1-----------------------------

-----7---------------2-4-------------------------

-------------------------------------------------

-------------------------------------------------

final solo:

3.38

-------------------------------------------------

---2--5-7---5------------------------------------

---2------6-----4b6rp2-/6---4---6-4--4/6-4-------

---2--------------------------7------4/6---------

-------------------------------------------------

-------------------------------------------------

4:01

-------------------------------------------------

----7br-5--7-5-----------------------------------

--6---------------4h6-4---6--4-2-4b6rp2-4--------

-----------------7------7------------------------

-------------------------------------------------

-------------------------------------------------

4:18

-----------------------------------2-------------

----5-7-7--5b-7b-7-------------------------------

---6---6-6-----------7p6-7-6--4---2--------2-1---

---------------------7-----------4-----2/4-------

-------------------------------------------------

-------------------------------------------------

4:37

----------------------------------5-4-/2---------

---------------/7-(7-5)--5------7--------2-------

--4-4p2---2----/6----------6---------------------

--------4------/7--------------------------------

-------------------------------------------------

-------------------------------------------------

4:52

-----2-----2-------------------------------------

-------5-2---5-2---------------------------------

-2-1------------------------2/19--19p18----------

----------------------------------------21-19----

--------------------/4-0----------------------21-

-------------------------------------------------

5:12

-------0---0------------------------------------- h= hammer on

-------------0----------------------------------- p= pull off

---2/4---------2-1------------------------------- b= bend

-------------------2-2/4.....-------------------- r=release bend

------------------------------------------------- /= slide

------------------------------------------------- 5:12=time from my

And there you are! The first Mark Knopfler song tabbed on mxtabs.net!

Get this song at:  amazon.com sheetmusicplus.com

Share your thoughts

0 Comments found