Mark Knopfler

Mark Knopfler - Rudiger guitar tab

Rudiger

Intro:

--------------------

-1---0----1----0----

---2---2----2------- :

--------------------

--------------------

--------------------

C 1 :

Am E7 Am E Am7 E7

Rudiger stands in the rain and the snow

Dm7 Am Dm7 Am

Collector of autographs, names upon photographs

Dm Am G Fmaj7 E7

Faces of people who everyone knows

R 1 :

G7 C F C Dm7 G7

Oh Rudiger Rudiger

C Am F G E7

Ru- di oh Rudiger

C 2 (= C1 )

R 1

Solo :

-----7-8---4-7-5--------------------------------------------------------------------

-5^7-------------5>9---5>8---8~(10)---7---6---3^5^6-5---3~(5)~3^1^3---1-3-1-3~(5)---

------------------------------------------------------------------------------------

------------------------------------------------------------------------------------

------------------------------------------------------------------------------------

------------------------------------------------------------------------------------

-----7-8---4-7-5---------------------------------------------------------------------

-5^7-------------5-7~(9)---5^8---8~(10)-7---6---1^3~(5)~3---1-3~(5)---5^4^3---1------

---------------------------------------------------------------------------------2---

-------------------------------------------------------------------------------------

-------------------------------------------------------------------------------------

-------------------------------------------------------------------------------------

E7

C 3 ( = C 1)

C4 ( = C 1)

R 1

And then :

G7 F G7 C F C Dm7 G G7

...ger Rudiger Rudiger

C Am F G C

Ru- di oh Ru- di- ger

E7 E7 E7 E7 F Intro F F F ...

Transcrit par Franck Birambaux

Get this song at:  amazon.com sheetmusicplus.com

Share your thoughts

0 Comments found