Mark Knopfler

Mark Knopfler - Punish The Monkey guitar tab

I tabbed this solo with Power Tab Editor.

I also added the notes for timing and all, so you actually play the solo without even

having heard the original solo :)

unfortunatly the notes are changed to letters...

on the bottom is the legend.

Standard Tuning [E A D G B E]

124 bpm

4/4

~~~~~~~~~~~~~~

Q. Q. Q Q. Q. E E E E E Q Q. Q E E E E E E Q. Q. Q H. E E X Q. E E. E. E

|-----------------------------------------------------------------------------|

|-----------------------------------------------------------5-6--6-5----------|

|--------------------------------------------------5------5-5h7-------5-------|

|------------------------------------5---------------7--7----------------7----|

|---------------------------8--5-8-5---8-5---5--8-----------------------------|

|-5--5--5-5--5--5-5-6-8-6-5----------------8----------------------------------|

X Q. E E E E E X Q.. T Q Q Q E H E E E E Q E E Q. E E E E E E X Q. Q. Q W

|-----------5-------------------------/5-5-5-5------------5--------------------8-5----|

|-------6-8---8-6-5h6-----5-6-5-------/6-6-6-6-8-6-8b10-----9-8-6-----------6---------|

|-5h7-------------5h7-----------5---------------------------------7-5-5h7-------------|

|---------------------------------7---------------------------------------------------|

|-------------------------------------------------------------------------------------|

|-------------------------------------------------------------------------------------|

E E E E E E Q W E Q H. E E E E E Q E Q H. E E E E E

|-----------------3------------------------------------------|

|-/9-10-9-8-6-----3--6---------------------------------------|

|-------------7-5------7-7---7---------------7---------------|

|-----------------5------7---5-6-7-6-5-----------------------|

|--------------------------------------8-8-5-5--8p5----------|

|---------------------------------------------------8-3-1----|

Duration Legend

---------------

W - whole; H - half; Q - quarter; E - 8th; S - 16th; T - 32nd; X - 64th;

. - note dotted; .. - note double dotted

Duration letters will always appear directly above the note/fret number it represents the

duration for. Duration letters with no fret number below them represent rests.

Tablature Legend

----------------

h - hammer-on

p - pull-off

b - bend

/\\ - slide into or out of (from/to "nowhere")

~ - vibratoAdded by tabs-database.com and our distinguished partners

Get this song at:  amazon.com sheetmusicplus.com

Share your thoughts

0 Comments found