Mark Knopfler

Mark Knopfler - One More Matinee guitar tab

One more matinee

Guitar intro:

C G Am F C G C

||-------0-----------|------------------|----------------|-------3---|--------------|

||-----------3-----0-|-1----------1^0---|------1---------|---------0-|----1---------|

||-0-------0-----0---|-----0----------2-|-0------0----0--|---0-----0-|--0---0-2>1---|

||----2--------0-----|---2------3-------|----2------2---2|--0--0-----|------------2-|

||-3---------2-------|-0----------------|-3--------3-----|-----------|-3------2-----|

||-------------------|--------1---------|----------------|-3---------|--------------|

Am F C G Dm Am G F G Dm Am G

-------------|---------0-----|--------3-|----------0-----|----------------|----------------|

----1--------|----1------1---|----0-----|-----3--3---1-0-|----1------0-0--|-----3------1-0-|

-----------2-|--0---0------0-|------0---|---2---2----2-0-|----2------0-0--|---2---2----2-0-|

--2------3---|------------2--|-0--------|-0--------------|--3---3---0-----|-0---------2----|

0------------|-3-------------|----------|----------0-----|----------------|---------0------|

-------1-----|---------------|-3--------|----------------|-1------3-------|----------------|

F

-----------|-------------------|--------------||

-----------|-3-----3-------3---|----1-----0---||

-2-----2---|---2-----2-0-----0-|--2---2---0---||:

-----3---0-|-----3-------3-----|--------------||

-----------|-1---------1-------|--------------||

-1---------|-------------------|-3------------||

All verses (Play like guitar intro)

Here's one of the two of us

In 1954 don't laugh

I keep all of the pictures

Are you going to take a photograph

Here's something nice for you

A dear old thing came to a show

Last time here we did

An interview on local radio

*Guitar 2

Make yourself at home my darling

Come on in

Hand me down that jar love

Can I offer you a gin

We're proud to be the oldest

Ugly sisters in variety

There's not the glamour now you see

What happened to society

There's another light bulb gone

They don't all answer to the switch

I don't know how we carry on

And her she couldn't care the bitch

But in a while the old boys

In the band began to play

And in a while the houselights

And the curtains slide away

Chorus:

C

And something's going to happen

C

To make your whole life better

C7 F

Your whole life better one day

C

Something's going to happen

F E Am

To make your whole life better

F G

Your whole life better one day

Solo: chords like intro

-----|--------------|-----------------|---------|-3---------|---------|--------------------|

---8-|--------------|-------5-6-5-----|-------1-|-3^5-3^5-3-|-5>8-5---|------5-6^5-6-5-----|

-9---|-9---(10)~9^7-|-7~(9)-------9-7-|-4-2-0---|-----------|-------7-|-7~(9)----------7-5-|

-----|--------------|-----------------|---------|-----------|---------|--------------------|

-----|--------------|-----------------|---------|-----------|---------|--------------------|

-----|--------------|-----------------|---------|-----------|---------|--------------------|

-----------|-------|-3--------3-----------|-------------|

-----------|-------|-3^5^3------5~(6)~5-3-|-5>6-5-------|

-7^5>4-5---|-------|-------5--------------|-------7-5---|

---------7-|-5>3-5-|----------------------|-----------7-|

-----------|-------|----------------------|-------------|

-----------|-------|----------------------|-------------|

Now the landlady's all squared away

It's just a temporary deal

I'm afraid tonight it's take-away

You see there is no evening meal

Don't worry dear you shall go to the ball

I think the fairy said

These suitcases have seen it all

From under someone else's bed

You want to smile those tears away

Now don't you cry

You want to know what I say

I say never say die

Chorus:X2

'Cos something's going to happen

To make your whole life better

Your whole life better one day

Something's going to happen

To make your whole life better

Your whole life better one day

|-------0-----------|------------------|----------------|---|

|-----------3-----0-|-1----------1^0---|------1-------3-|-1-|

|-0-------0-----0---|-----0----------2-|-0------0---1---|-0-|

|----2--------0-----|---2------3-------|----2-----0-----|-2-|

|-3---------2-------|-0----------------|-3--------------|-3-|

|-------------------|--------1---------|----------------|---|

*Guitar 2 :

-13-12-|-8----10-|-13-12>8----|-5---8-

-15-13-|-10---12-|-15-13>10---|-6---6-

-------|---------|------------|-----7-

-------|---------|------------|-----7-

-------|---------|------------|-------

-------|---------|------------|-------

Artist:Mark Knopfler

Album:Sailing To Philadelphia

Title:One more Matinee

Transcriped by:Gökay Ersoy

E-mail:gokay96@hotmail.com

Please send your corrections and comments;

guitar solo:

- ---------------------------------------------------------

- --5-8~---5b-------5-6-5----------------------------------

- ------------7---7-------7p5--------5~--7h9-7h9-7~--------

- -----------------------------7-5-7-----------------------

- ---------------------------------------------------------

- ---------------------------------------------------------

- ---------------------------------------------------------

- -5-8-5---------5-6-5-----6-5-----------------------------

- -------7~---7b-------7-------7-5~---7-5-4h5--------------

- --------------------------------------------7----5h3-5~--

- ---------------------------------------------------------

- ---------------------------------------------------------

guitar ends.

- ---------------------------------------------------------

- ---5-----8--5----5-6-5-----------5-6--5---5-------------

- -7---7-5------7-------------7p5-7--------7----5-4---5-7--

- --------------------------------------------------7------

- ---------------------------------------------------------

- ---------------------------------------------------------

- ---------------------------------------------------------

- -5-6-5---6-5-------5-------------------------------------

- -------------7-5-7---5-4---5-7--.......------------------

- -------------------------7-------------------------------

- ---------------------------------------------------------

- ---------------------------------------------------------

h=hammer on

p=pull of

b=bend

~:vibrat

Get this song at:  amazon.com sheetmusicplus.com

Share your thoughts

0 Comments found